Song name
# A B C D E F G H I J K L M N O P Q R S T U V W X Y Z

Cruxshadows - Tears tab

Tears(Live)

Intro

E  :------------------------------|------------------------------|
B  :------------------------------|------------------------------|
G  :7---7-\5---5-\9---9-\4--------|7---7-\5---5-\9---9-\4--------|
D  :7---7-\5---5-\9---9-\4--------|7---7-\5---5-\9---9-\4--------|
A  :5---5-\3---3-\7---7-\2--------|5---5-\3---3-\7---7-\2--------|
E  :------------------------------|------------------------------|

Verse/Bridge*

E  :------------------------------|------------------------------|
B  :----------------7-------------|----------------5-------------|
G  :---------7--------7-----------|---------5--------5-----------|
D  :--7----7---7---------7--------|--5----5---5---------5--------|
A  :5---5---------5----------5-/3-|3---3---------3----------3-/7-|
E  :------------------------------|------------------------------|

E  :-------------------------------|-------------------------|
B  :----------------9--------------|--------------4----------|
G  :----------9-------9------------|--------4-------4--------|
D  :---9----9---9-------9----------|--4---4---4-------4------|
A  :-7----7-------7-----------7-\2-|2---2-------2------------|
E  :-------------------------------|-------------------------|

Chorus/Outro

E  :------------------|------------|
B  :------------------|--7-5--4-5--|
G  :------------------|7-----------|
D  :5-----------------|7-----------|
A  :5------5-3-2--3---|5-----------|
E  :3---3-------------|------------|

E  :-------------------------------|
B  :-------------------------------|
G  :10---10-9-7-9-7---5-5-5-5------|
D  :10----------------5-5-5-5------|
A  :-8----------------3-3-3-3------|
E  :-------------------------------|


*Note:
	Verse is played clean while the bridge is played distorted.
Also, the first bar in the first verse there is no guitar just violin.
Tap to rate this tab
 
# A B C D E F G H I J K L M N O P Q R S T U V W X Y Z