Song name
# A B C D E F G H I J K L M N O P Q R S T U V W X Y Z

Crvena Jabuka - Volio Bih Da Si Tu tab

Enjoy ;)





e|------------------------------------|--------------------------------------|
b|------------------------------------|--------------------------------------|
g|--------------------9-9-------------|-------------------9------------------|
d|------------10-9-10-----10-9-9--10-9|-----------10-9-10----10--9-10-9--10-9|
a|--7--9--10--------------------------|-7--9--10-----------------------------|
E|------------------------------------|--------------------------------------|

e|-----------------------------------------------|
b|-----------------------------------------------|
g|--9--------------------------------------------|
d|-----10-9--9-10-9----------------------7-------|
a|------------------10-9-7--9-10-9--9-10---10-9-7|
E|-----------------------------------------------|
Tap to rate this tab
# A B C D E F G H I J K L M N O P Q R S T U V W X Y Z