Guitaretab - guitar tabs
Song name
# A B C D E F G H I J K L M N O P Q R S T U V W X Y Z

Cry Of The Afflicted - The Influence Of False Pretense tab

-----------------------------------------------------------------------
      "The Influence of False Pretense" by Cry of the Afflicted
-----------------------------------------------------------------------

Tabbed by: Wake (waketabs@gmail.com) 
28 October, 2008

Intro to Track 4 from Cry of the Afflicted's 2007 LP "The Unveiling."

=-=-=-=-=-=-=-=-=-=-=-=-=-=-=-=-=-=-=-=-=-=-=-=-=-=-=-=-=-=-=-=-=-=-=-=

Tuning: Drop C (CGCFAD) @ ~75bpm

Lead
Intro Riff
                                 ~~
d|-------------------------------12---14------|
A|--------------10p9--------9h10---------14---|
F|-----------11------11p9---------------------|
C|--------11--------------9-------------------| x7
G|---9-12-------------------------------------|
C|--------------------------------------------|

d|------------------------17-16----------------|
A|--------------10p9------------17-14--17-14---|
F|-----------11------11p9----------------------|
C|--------11-----------------------------------| x1
G|---9-12--------------------------------------|
C|---------------------------------------------|

Chorus Riff
played twice

e|-----------9-9-9---------------12-------9---|
B|-----------------9--9h10-12-10----10-12-----|
G|--11-11-11----------------------------------|
D|--------------------------------------------| x3
A|--------------------------------------------|
E|--------------------------------------------| then...
					       ~~
d|---17-------17-------17----16-------16-------16---|
B|------17-14----17-14----17----17-14----17-14------|
G|--------------------------------------------------|
D|--------------------------------------------------| x1
A|--------------------------------------------------|
E|--------------------------------------------------|
[ Tab from: http://www.guitaretab.com/c/cry-of-the-afflicted/117807.html ]
Bridge Riff @ 2:43 & 2:56
					       ~~
d|---17-------17-------17----16-------16-------16---|
B|------17-14----17-14----17----17-14----17-14------|
G|--------------------------------------------------|
D|--------------------------------------------------|
A|--------------------------------------------------|
E|--------------------------------------------------|


Rhythm
Intro	

d|-------|	|-------|	|-------|
A|-------|	|-------|	|-------|
F|---6---|	|---7---|	|---4---|
C|---4---| x3	|---0---| x1	|---2---| x1
G|---4---|	|---0---|	|---2---|
C|---4---|	|---0---|	|---2---|

d|---------------------------------------------------------|
A|---------------------------------------------------------|
F|---------------------------------------------------------|
C|---------------------------------------------------------| x2
G|---4-4--4---4-4--4---4-4--4---4-4--4---4-4-4-4-4-4-4-4---|
C|---4-4--4---4-4--4---4-4--4---4-4--4---4-4-4-4-4-4-4-4---|
     x x  x   x x  x   x x  x   x x  x   x x x x x x x x 

d|---------------------------------------------------------|
A|---------------------------------------------------------|
F|---------------------------------------------------------|
C|---------------------------------------------------------| x1
G|---0-0--0---0-0--0---0-0--0---0-0--0---0-0-0-0-0-0-0-0---|
C|---0-0--0---0-0--0---0-0--0---0-0--0---0-0-0-0-0-0-0-0---|
     x x  x   x x  x   x x  x   x x  x   x x x x x x x x 

d|---------------------------------------------------------|
A|---------------------------------------------------------|
F|---------------------------------------------------------|
C|---------------------------------------------------------| x1
G|---2-2--2---2-2--2---2-2--2---2-2--2--2--2--2--2--2------|
C|---2-2--2---2-2--2---2-2--2---2-2--2--2--2--2--2--2------|
     x x  x   x x  x   x x  x   x x  x  x  x  x  x  X


=-=-=-=-=-=-=-=-=-=-=-=-=-=-=-=-=-=-=-=-=-=-=-=-=-=-=-=-=-=-=-=-=-=-=-=
|
| h  hammer-on
| p  pull-off
| ~  vibrato
| x  Mute note
|
=-=-=-=-=-=-=-=-=-=-=-=-=-=-=-=-=-=-=-=-=-=-=-=-=-=-=-=-=-=-=-=-=-=-=-=
Related for The Influence Of False Pretense tab
Advertisement will be closed in 10 seconds