Guitaretab - guitar tabs
Song name
# A B C D E F G H I J K L M N O P Q R S T U V W X Y Z

Cry Of The Afflicted - Penetrate Illuminate tab

---------------------------------------------------------------------------
                          Penetrate, Illuminate
                          Cry of the Afflicted
---------------------------------------------------------------------------

Hello, again..... And I want to just point out that this tab is a difficult song to
with all the different guitars going off. Itís just hard to tell which is the Guitar 1 and
I love the song and all, but it is difficult to hear, but once you know it, it is easy 
learn. I hope you enjoy!

Username: dkm817 (same on X box live)
Email: guitardrums@rockfan.com

Guitar 1 Rhythmic (C G C F A D)
Guitar 2 Lead     (C G C F A D)

Intro

Guitar 1
D--------------------------------------------------------------------------|
A--------------------------------------------------------------------------|
F--------------------------------------------------------------------------|
C-0-0---------0-0-0--0-0-0-------------0-0---------0-0-0--0-0-0------------|
G-0-0---------0-0-0--0-0-0-------------0-0---------0-0-0--0-0-0------------|
C-0-0---------0-0-0--0-0-0-------------0-0---------0-0-0--0-0-0------------|
Pm. .         . . .  . . .             . .         . . .  . . .

Guitar 2
D---------------------------------------------------------------------------|
A---------------------------------------------------------------------------|
F---------------------------------------------------------------------------|
C---------------------------------------------------------------------------|
G-----5p0-7p0--------------5p0-7p0-8p0-----5p0-7p0--------------5p0-7p0-8p0-|
C-0-0---------0-0-0--0-0-0-------------0-0---------0-0-0--0-0-0-------------|
Pm. .         . . .  . . .             . .         . . .  . . .

Guitar 1
D--------------------------------------|
A--------------------------------------|
F--------------------------------------|
C-8-8---------8-8-8--8-8-8-------------|
G-8-8---------8-8-8--8-8-8-------------|
C-8-8---------8-8-8--8-8-8-------------|
Pm. .         . . .  . . .

Guitar 2
D--------------------------------------|
A--------------------------------------|
F--------------------------------------|
C--------------------------------------|
G-----5p0-7p0--------------5p0-7p0-8p0-|
C-8-8---------8-8-8--8-8-8-------------|
Pm. .         . . .  . . .

Guitar 1
D---------------------------------------|
A---------------------------------------|
F---------------------------------------|
C-10-10---------10-10-10----------3---2-|
G-10-10---------10-10-10--0---3---------|
C-10-10---------10-10-10----0---0---0---|
Pm.  .          .  .  .     .   .   .
Guitar 2
D---------------------------------------|
A---------------------------------6---5-|
F-------------------------2---5---------|
C---------------------------0---0---0---|
G-------5p0-7p0-------------------------|
C-10-10---------10-10-10----------------|
  .  .          .  .  .     .   .   .

Intro 2

Guitar 1
D------------------------------------------------------------------------|
A------------------------------------------------------------------------|
F-7-7--7~~~~~~~~~~~~~~~~~~~~~~~~~~~~~-7-7--7~~~~~~~~~~~~~~~~~~~~~~~~~~~~-|
C-7-7--7~~~~~~~~~~~~~~~~~~~~~~~~~~~~~-7-7--7~~~~~~~~~~~~~~~~~~~~~~~~~~~~-|
G-5-5--5~~~~~~~~~~~~~~~~~~~~~~~~~~~~~-5-5--5~~~~~~~~~~~~~~~~~~~~~~~~~~~~-|
C------------------------------------------------------------------------|
pm. .                                 . .

Guitar 2
D-------------------------------------------------------------------------|
A-------------------------------------------------------------------------|
F-----7h9---9h10---10h12---9h10---5h7-----7h9---9h10---10h12---9h10---5h7-|
C-0-0-----0------0-------0------0-----0-0-----0------0-------0------0-----|
G-0-0-----0------0-------0------0-----0-0-----0------0-------0------0-----|
C-0-0-----0------0-------0------0-----0-0-----0------0-------0------0-----|
pm. .     .      .       .      .     . .     .      .       .      .

Guitar 1 continued
D---------------------------------------------------------------------|
A---------------------------------------------------------------------|
F-3-3--3~~~~~~~~~~~~~~~~~~~~~~~~~~~~~~5-5--5~~~~~~~~~~----------------|
C-3-3--3~~~~~~~~~~~~~~~~~~~~~~~~~~~~~~5-5--5~~~~~~~~~~----------3---2-|
G-1-1--1~~~~~~~~~~~~~~~~~~~~~~~~~~~~~~3-3--3~~~~~~~~~~--0---3---------|
C---------------------------------------------------------0---0---0---|
pm. .  .                              . .  .              .   .   .

Guitar 2 continued
D----------------------------------------------------------------------|
A----------------------------------------------------------------6---5-|
F-----7h9---9h10---10h12---9h10---5h7-----9h10---12h14\--2---5---------|
C-0-0-----0------0-------0------0-----0-0------0-----------0---0---0---|
G-0-0-----0------0-------0------0-----0-0------0-----------------------|
C-0-0-----0------0-------0------0-----0-0------0-----------------------|
pm. .     .      .       .      .     . .     .      .     .   .   .

Verse 1 x2

Guitar 1
D---------------------------------------------------------------------|
A---------------------------------------------------------------------|
F---------------------------------------------------------------------|
C-0-0-----0------0-------0------0-----0-0-----0------0-------0------0-|
G-0-0-----0------0-------0------0-----0-0-----0------0-------0------0-|
C-0-0-----0------0-------0------0-----0-0-----0------0-------0------0-|
pm. .     .      .       .      .     . .     .      .       .      .

Guitar 2
D-------------------------------------------------------------------------|
A-------------------------------------------------------------------------|
F-----7h9---9h10---10h12---9h10---5h7-----7h9---9h10---10h12---9h10---5h7-|
C-0-0-----0------0-------0------0-----0-0-----0------0-------0------0-----|
G-0-0-----0------0-------0------0-----0-0-----0------0-------0------0-----|
C-0-0-----0------0-------0------0-----0-0-----0------0-------0------0-----|
pm. .     .      .       .      .     . .     .      .       .      .


Guitar 1 continued
D---------------------------------------------------------------------|
A---------------------------------------------------------------------|
F---------------------------------------------------------------------|
C-5-5-----5------5-------5------5-----3-3-----3-----------------3---2-|
G-5-5-----5------5-------5------5-----3-3-----3---------0---3---------|
C-5-5-----5------5-------5------5-----3-3-----3-----------0---0---0---|
pm. .     .      .       .      .     . .     .           .   .   .

Guitar 2 continued
D----------------------------------------------------------------------|
A----------------------------------------------------------------6---5-|
F-----7h9---9h10---10h12---9h10---5h7-----9h10---12h14\--2---5---------|
C-0-0-----0------0-------0------0-----0-0------0-----------0---0---0---|
G-0-0-----0------0-------0------0-----0-0------0-----------------------|
C-0-0-----0------0-------0------0-----0-0------0-----------------------|
pm. .     .      .       .      .     . .     .      .     .   .   .


Chorus x2

Guitar 1 and 2
D----------------------------------------------------------------|
A----------------------------------------------------------------|
F-7-7-10-7-10-7-10-7-10-7-10-7-10-7--6-6-9-6-9-6-9-6-9-6-9-6-9-6-|
C----------------------------------------------------------------|
G----------------------------------------------------------------|
C----------------------------------------------------------------|

Guitar 1 and 2
D-------------------------------------------------------------------|
A-------------------------------------------------------------------|
F-12-12-15-12-15-14-15-12-15-12-15-12-15-14-15--10-10-10-10-9-9-9-9-|
C-------------------------------------------------------------------|
G-------------------------------------------------------------------|
C-------------------------------------------------------------------|

Breakdown
[ Tab from: http://www.guitaretab.com/c/cry-of-the-afflicted/176193.html ]
Guitar 1
D--------------------------------------------------------------------------|
A--------------------------------------------------------------------------|
F--------------------------------------------------------------------------|
C-0-0---------0-0-0--0-0-0-------------0-0---------0-0-0--0-0-0------------|
G-0-0---------0-0-0--0-0-0-------------0-0---------0-0-0--0-0-0------------|
C-0-0---------0-0-0--0-0-0-------------0-0---------0-0-0--0-0-0------------|
Pm. .         . . .  . . .             . .         . . .  . . .

Guitar 2
D---------------------------------------------------------------------------|
A---------------------------------------------------------------------------|
F---------------------------------------------------------------------------|
C---------------------------------------------------------------------------|
G-----5p0-7p0--------------5p0-7p0-8p0-----5p0-7p0--------------5p0-7p0-8p0-|
C-0-0---------0-0-0--0-0-0-------------0-0---------0-0-0--0-0-0-------------|
Pm. .         . . .  . . .             . .         . . .  . . .

Guitar 1
D--------------------------------------|
A--------------------------------------|
F--------------------------------------|
C-8-8---------8-8-8--8-8-8-------------|
G-8-8---------8-8-8--8-8-8-------------|
C-8-8---------8-8-8--8-8-8-------------|
Pm. .         . . .  . . .

Guitar 2
D--------------------------------------|
A--------------------------------------|
F--------------------------------------|
C--------------------------------------|
G-----5p0-7p0--------------5p0-7p0-8p0-|
C-8-8---------8-8-8--8-8-8-------------|
Pm. .         . . .  . . .

Guitar 1
D---------------------------------------|
A---------------------------------------|
F---------------------------------------|
C-10-10---------10-10-10----------3---2-|
G-10-10---------10-10-10--0---3---------|
C-10-10---------10-10-10----0---0---0---|
Pm.  .          .  .  .     .   .   .
Guitar 2
D---------------------------------------|
A---------------------------------6---5-|
F-------------------------2---5---------|
C---------------------------0---0---0---|
G-------5p0-7p0-------------------------|
C-10-10---------10-10-10----------------|
  .  .          .  .  .     .   .   .

Verse 1 x2

Guitar 1
D---------------------------------------------------------------------|
A---------------------------------------------------------------------|
F---------------------------------------------------------------------|
C-0-0-----0------0-------0------0-----0-0-----0------0-------0------0-|
G-0-0-----0------0-------0------0-----0-0-----0------0-------0------0-|
C-0-0-----0------0-------0------0-----0-0-----0------0-------0------0-|
pm. .     .      .       .      .     . .     .      .       .      .

Guitar 2
D-------------------------------------------------------------------------|
A-------------------------------------------------------------------------|
F-----7h9---9h10---10h12---9h10---5h7-----7h9---9h10---10h12---9h10---5h7-|
C-0-0-----0------0-------0------0-----0-0-----0------0-------0------0-----|
G-0-0-----0------0-------0------0-----0-0-----0------0-------0------0-----|
C-0-0-----0------0-------0------0-----0-0-----0------0-------0------0-----|
pm. .     .      .       .      .     . .     .      .       .      .


Guitar 1 continued
D---------------------------------------------------------------------|
A---------------------------------------------------------------------|
F---------------------------------------------------------------------|
C-5-5-----5------5-------5------5-----3-3-----3-----------------3---2-|
G-5-5-----5------5-------5------5-----3-3-----3---------0---3---------|
C-5-5-----5------5-------5------5-----3-3-----3-----------0---0---0---|
pm. .     .      .       .      .     . .     .           .   .   .

Guitar 2 continued
D----------------------------------------------------------------------|
A----------------------------------------------------------------6---5-|
F-----7h9---9h10---10h12---9h10---5h7-----9h10---12h14\--2---5---------|
C-0-0-----0------0-------0------0-----0-0------0-----------0---0---0---|
G-0-0-----0------0-------0------0-----0-0------0-----------------------|
C-0-0-----0------0-------0------0-----0-0------0-----------------------|
pm. .     .      .       .      .     . .     .      .     .   .   .


Chorus x2

Guitar 1 and 2
D----------------------------------------------------------------|
A----------------------------------------------------------------|
F-7-7-10-7-10-7-10-7-10-7-10-7-10-7--6-6-9-6-9-6-9-6-9-6-9-6-9-6-|
C----------------------------------------------------------------|
G----------------------------------------------------------------|
C----------------------------------------------------------------|

Guitar 1 and 2
D-------------------------------------------------------------------|
A-------------------------------------------------------------------|
F-12-12-15-12-15-14-15-12-15-12-15-12-15-14-15--10-10-10-10-9-9-9-9-|
C-------------------------------------------------------------------|
G-------------------------------------------------------------------|
C-------------------------------------------------------------------|

Break Off

Guitar 2
D-----------------------------------|
A-----15---15---10---10-5h6p5h6p5h6-|
F-0-0----0----0----0----------------|
C-----------------------------------|
G-----------------------------------|
C-----------------------------------|
pm. .    .    .    .

Interlude x2

Guitar 1
D---------------------------------------------------------------------------|
A---------------------------------------------------------------------------|
F---------------------------------------------------------------------------|
C-0-0--0-------------0-0--0-------------0-0--0----------0-0--0--------------|
G-0-0--0-7--7--7--7--0-0--0-5--5--5--5--0-0--0-3-3-3-3--0-0--0-10-10-8-8--7-|
C-0-0--0-------------0-0--0-------------0-0--0----------0-0--0--------------|

Guitar 2
D---------------------------------------------------------------------------|
A--------10-10-10-10--------8--8--8--8---------6-6-6-6-------13-13-11-11-10-|
F--------13-13-13-13--------11-11-11-11--------9-9-9-9-------16-16-14-14-13-|
C-0-0--0-------------0-0--0-------------0-0--0---------0-0--0---------------|
G-0-0--0-------------0-0--0-------------0-0--0---------0-0--0---------------|
C-0-0--0-------------0-0--0-------------0-0--0---------0-0--0---------------|
pm. .  .             . .  .             . .  .         . .  .

Chorus x4

Guitar 1 and 2
D----------------------------------------------------------------|
A----------------------------------------------------------------|
F-7-7-10-7-10-7-10-7-10-7-10-7-10-7--6-6-9-6-9-6-9-6-9-6-9-6-9-6-|
C----------------------------------------------------------------|
G----------------------------------------------------------------|
C----------------------------------------------------------------|

Guitar 1 and 2
D-------------------------------------------------------------------|
A-------------------------------------------------------------------|
F-12-12-15-12-15-14-15-12-15-12-15-12-15-14-15--10-10-10-10-9-9-9-9-|
C-------------------------------------------------------------------|
G-------------------------------------------------------------------|
C-------------------------------------------------------------------|

Outro

Guitar 2
D----------------------------------------|
A-----15---15---10---10-5h6p5h6p5h6p5h6--|
F-0-0----0----0----0---------------------|
C----------------------------------------| x4
G----------------------------------------|
C----------------------------------------|
pm. .    .    .    .

Tab Legend
h  -  hammer-on
p  -  pull-off
/  -  slide up
\  -  slide down
pm.-  palm mute
~  -  let ring
ps/-  pickslide up
ps\-  pickslide down
b  -  bend
r  -  return from bend
t  -  triple strum

There you go, oh yeah if you have the chance email me about the tab.
Remember, this isnít an easy tab so it might have a few mistakes, and once last thing... 
OUT!!!!!
Related for Penetrate Illuminate tab