Song name
# A B C D E F G H I J K L M N O P Q R S T U V W X Y Z

Cryoshell - Creeping In My Soul tab

 
Verse1
d|----------------------------------------------------------|
a|----------------------------------------------------------|
f|----------------------------------------------------------|
c|----------------------------------------------------------|
g|--------------------4----------7-----------4-----------7--|
c|--------------------4----------7-----------4-----------7--|

Chorus
d|-----------------------------------------------------------------------------|
a|-----------------------------------------------------------------------------|
f|-----------------------------------------------------------------------------|
c|-----------------------------------------------------------------------------|
g|---------4(8x)------7-(8x)-------2-(8x)------9-(8x)-------------------------|
c|---------4-----------7------------2-----------9------------------------------|

d|-----------------------------------------------------------------------------|
a|-----------------------------------------------------------------------------|
f|-----------------------------------------------------------------------------|
c|-----------------------------------------------------------------------------|
g|---------4(8x)------7-(8x)-------2-(8x)------0-(8x)-------------------------|
c|---------4-----------7------------2-----------0------------------------------|

Verse2
d|--------------------------------------------------------------------------------------------|
a|-------------------------------------------------(palm muted)-------------------------------|
f|--------------------------------------------------------------------------------------------|
c|-------11-11-12-12-9-9-11-11-7-7-9-9-6-6----(3x)----11-11-12-12-9-9-11-11-12-12-11-11-12-12-|
g|--9-9-------------------------------------------9-9-----------------------------------------|
c|--------------------------------------------------------------------------------------------|

d|-------------------------------------------------------------------------------|
a|-------------------------------------------------------------------------------|
f|-------------------------------------------------------------------------------|
c|-----------------------------------------------------------------(palm muted)--|
g|----4---4-4---(4x)----///-12-------4---4-4---(4x)-------12-12-12-12-12---------|
c|----4---4-4-----------///-12-------4---4-4--------------12-12-12-12-12---------|
 
d|--------------------------------------------------------------------------|
a|--------------------------------------------------------------------------|
f|--------------------------------------------------------------------------|
c|--------------------------------------------------------------------------|
g|----4------7---------4-4--4-4--4-4--4-5--4-4--5---(2x)---------4-------6--|
c|----4------7---------4-4--4-4--4-4--4-5--4-4--5----------------4-------6--|

Chorus





Bridge
d|-----------------------------------------------|
a|-----------------------------------------------|
f|-----------------------------------------------|
c|-----------------------------------------------|
g|-----(4)--(4)--(4)--------(listen for rhythm)--|
c|-----(4)--(4)--(4)-----------------------------|

Chorus (without first chords)

Chorus

END
Tap to rate this tab
# A B C D E F G H I J K L M N O P Q R S T U V W X Y Z