Song name
# A B C D E F G H I J K L M N O P Q R S T U V W X Y Z

Cryoshell - Closer To The Truth tab

-------------------------------------------------------------------------------
                        Closer to the Truth - Cryoshell
-------------------------------------------------------------------------------
Tabbed by: Suroundsound
E-mail: adityaatman@gmail.com

Tuning: Drop D

This is my first tab using an alternative tuning, mainly because I wanted all my tabs to 
be easy. If you type in "online guitar tuner," click the first link (It should be 
geison.com) and you can adjust the tuner to Drop D.

Intro

      A   A   G     G    D  D   F        F
e|------------0--------0-----------------------------------------------------|
B|----2---2------4--2--------------------------------------------------------|
G|-----------------------0------3-3-3-3--2-2-2-2-----------------------------|
D|--------------------------3------------------------------------------------|
A|---------------------------------------------------------------------------|
E|---------------------------------------------------------------------------|


Verse
e|-------4x4x4x4x0x0x0x0x--------2x2x2x2x------------------------------------|
B|-----------------------4x4x4x4x--------------------------------------------|
G|---------------------------------------------------------------------------|
D|---------------------------------------------------------------------------|
A|---------------------------------------------------------------------------|
E|---------------------------------------------------------------------------|
repeat x7

Build up
e|-------4x4x4x4x0x0x0x0x--------2~~~----------------------------------------|
B|-----------------------4x4x4x4x--------------------------------------------|
G|---------------------------------------------------------------------------|
D|---------------------------------------------------------------------------|
A|---------------------------------------------------------------------------|
E|---------------------------------------------------------------------------|

Chorus
      A   A   G     G    D  D   F        F
e|------------0--------0-----------------------------------------------------|
B|----2---2------4--2--------------------------------------------------------|
G|-----------------------0------3x3x---2x2x----------------------------------|
D|--------------------------3------------------------------------------------|
A|---------------------------------------------------------------------------|
E|---------------------------------------------------------------------------|
Repeat x5

Verse
e|-------4x4x4x4x0x0x0x0x--------2x2x2x2x------------------------------------|
B|-----------------------4x4x4x4x--------------------------------------------|
G|---------------------------------------------------------------------------|
D|---------------------------------------------------------------------------|
A|---------------------------------------------------------------------------|
E|---------------------------------------------------------------------------|
repeat x5

Build up
e|-------4x4x4x4x0x0x0x0x--------2~~~----------------------------------------|
B|-----------------------4x4x4x4x--------------------------------------------|
G|---------------------------------------------------------------------------|
D|---------------------------------------------------------------------------|
A|---------------------------------------------------------------------------|
E|---------------------------------------------------------------------------|

Chorus
      A   A   G     G    D  D   F        F
e|------------0--------0-----------------------------------------------------|
B|----2---2------4--2--------------------------------------------------------|
G|-----------------------0------3x3x---2x2x----------------------------------|
D|--------------------------3------------------------------------------------|
A|---------------------------------------------------------------------------|
E|---------------------------------------------------------------------------|
Repeat x7


e|-------4x4x4x4x0x0x0x0x--------2x2x2x2x------------------------------------|
B|-----------------------4x4x4x4x--------------------------------------------|
G|---------------------------------------------------------------------------|
D|---------------------------------------------------------------------------|
A|---------------------------------------------------------------------------|
E|---------------------------------------------------------------------------|

e|---------------------------------------------------------------------------|
B|---------------------------------------------------------------------------|
G|---------------------------------------------------------------------------|
D|----0----------------------------------------------------------------------|
A|---------------------------------------------------------------------------|
E|---------------------------------------------------------------------------|

End :)
************************************

| /   slide up
| \   slide down
| h   hammer-on
| p   pull-off
| ~   vibrato
| +   harmonic
| x   Mute note
| b   Bend
| pb  Pre-bend
| br  Bend release
| pbr Pre-bend release
| brb Bend release bend

************************************
Tap to rate this tab
# A B C D E F G H I J K L M N O P Q R S T U V W X Y Z