Guitaretab - guitar tabs
Song name
# A B C D E F G H I J K L M N O P Q R S T U V W X Y Z

Cryptic Fate - Bhobo Ghure tab

intro:
---------------------------------------------
---------------------------------------------
------4---4-----6-----4---6-----0------------
------4---4-----4-----4---4-----0------------
-x-x--2-x-2-x-x-2-x-x-2-x-2-x-x-0------------
-x-x----x---x-x---x-x---x---x-x--------------

[ Tab from: http://www.guitaretab.com/c/cryptic-fate/28910.html ]
----------------------------7*----5*---------
----------------------7*---------------------
--------------------7*---7*------------------
-x-x-5-x-5-x-x-7-----------------------------
-x-x-5-x-5-x-x-7-----------------------------
-x-x-3-x-3-x-x-5-----------------------------


Bridge:
----------------------------------
----------------------------------
----------7---------11---------5--
---5-7-8--7--5-7-8--11--5-7-8--5--
----------5---------8----------3--
----------------------------------

sorry about the last tab. it wuz a complete piece of crap.
during the verses, just play around with the same power chords.
as for the solo, good luck.

tabbed by shadman salem
Related for Bhobo Ghure tab