Guitaretab - guitar tabs
Song name
# A B C D E F G H I J K L M N O P Q R S T U V W X Y Z

Cryptic Fate - Protibad tab

originally tabbed by:coolno9
Title:Protibad
Artist:Criptic Fate

pluckin:

Chokher joto jol...(C, Em)
e|---0----|--------|--------|--------|
B|-------3|--1--3-1|0-------|--------|
G|--------|--------|----0---|--------|
D|--------|--------|--------|2-------|
A|---0----|--------|--------|--------|
E|--------|--------|--------|--------|

moner bheta bhoy...(Am, Em)
e|---------|-0-------|--------|----0---|
B|-0-1/-3--|----3-3\-|--1--0--|------3-|
G|---------|---------|--------|--------|
D|---------|---------|--------|2-------|
A|---------|---------|--------|--3-----|
E|---------|---------|--------|--------|

tumi dao aj shob kore ujar....(Am, G, C)
e|--------|--3------|-------3|---------|
B|1------1|-----1\--|0---1---|--1\-0---|
G|--0-----|---------|--------|---------|
D|--------|---------|--------|-------2-|
A|----3---|---------|--3-----|---------|
E|--------|---------|--------|---------|
[ Tab from: http://www.guitaretab.com/c/cryptic-fate/56985.html ]
e|-----0--|---3----|----0----|---------|
B|-0-1---1|-0---3\1|1-3---3--|-1-------|
G|--------|--------|---------|---------|
D|--------|--------|---------|---------|
A|--------|--------|---------|---------|
E|--------|--------|---------|---------|

same repeat...

/ slide up
\ slide down

Guitersolo:

e|----@---|-)------|----)---|--------|
B|--------|-----#--|-#-----#|--------|
G|--------|--------|--------|--------|
D|--------|--------|--------|--------|
A|--------|--------|--------|--------|
E|--------|--------|--------|--------|


e|----)--@|/#--@--@|--)--)/-|@-------|
B|-#------|--------|--------|--------|
G|--------|--------|--------|--------|
D|--------|--------|--------|--------|
A|--------|--------|--------|--------|
E|--------|--------|--------|--------|


e|--------|--------|--------|--------|
B|-)-@-@/#|--#--@\-|-8-)-)/@|--@-)\--|
G|--------|--------|--------|--------|
D|--------|--------|--------|--------|
A|--------|--------|--------|--------|
E|--------|--------|--------|--------|


e|--------|--------|--------|--------|
B|--------|--------|--------|--------|
G|----)-9-|9/-)----|--------|--------|
D|--------|--------|--)-9-9/|-)------|
A|--------|--------|--------|--------|
E|--------|--------|--------|--------|
Related for Protibad tab