Song name
# A B C D E F G H I J K L M N O P Q R S T U V W X Y Z

Cryptic Slaughter - Lowlife tab

Help us improve GuitareTab! Take a short survey!
Song by CRYPTIC SLAUGHTER
from the album CONVITCED
tabbed by Waltteri Savolainen (any corrections: waltteri_savolainen AT hotmail.com)

1st riff
|-----------------------------------------------------------------------------------------------------------------|
|-----------------------------------------------------------------------------------------------------------------|
|-----------------------------------------------------------------------------------------------------------------|
|-2------------------------------------------5----4--4--2----------------------------------------------5----7--7--|
|-0-0-0-0-0-0-0-0-0-0-0-0-0-0-0-0-3----2--2--0--0-0-0-0-0-0-0-0-0-0-0-0-0-0-0-0-3----5--5-------------------------|
|-----------------------------------------------------------------------------------------------------------------|


2nd riff
|-----------------------------------------------------------------------------------------------------------------|
|-----------------------------------------------------------------------------------------------------------------|
|-----------------------------------------------------------------------------------------------------------------|
|-----------------------------------------------------------------------------------------------------------------|
|-2------------------------------------------5----4--4--2----------------------------------------------5----7--7--|
|-0-0-0-0-0-0-0-0-0-0-0-0-0-0-0-0-3----2--2--0--0-0-0-0-0-0-0-0-0-0-0-0-0-0-0-0-3----5--5-------------------------|


3rd riff - play this one so fast that it'll smother ya mother!
|-------------------------------------------------------|
|-------------------------------------------------------|
|-------------------------------------------------------|
|-7--7--7--7--7--7--7--7-10-10-10-10-10-10-10-----------|
|-5--5--5--5--8--8--8--8--9--9--9--9--9--9--9--9--------|
|-------------------------------7--7--7--7--7--7--7--7--|


4th riff - "What hell is going on, I feel like I'm dead?" This one's a mid-tempo...
|----------------------------|
|----------------------------|
|----------------------------|
|-7--7--7--7--10-9-----------|
|-5--5--5--5---8--7--9-------|
|-------------------------7--|


5th riff - back to the speed of light
|------------------------------------------------------------------------------------|
|------------------------------------------------------------------------------------|
|------------------------------------------------------------------------------------|
|10---7----------------------------------------------------10---7--------------------|
|-8----5----------------------------------------------------8----5-------------------|
|----------000000000000000000000000000-------------00000000000000000000000000000000--|


6th riff - play it faster than a fucking millenium falcon flies
|-----------------------------------|
|-----------------------------------|
|-----------------------------------|
|-----------------------------------|
|-88885555777755558888555577775555--|
|-----------------------------------|


7th - midtempo again... fucking Death star stroke us or what?
|----------------------------------------------|
|----------------------------------------------|
|----------------------------------------------|
|10-10-10---7--7--7----------------------------|
|-8--8--8-----5--5--5----2-2-2-2-2-2-2-2-------|
|-----------------------------0-0-0-0-0-0-0-0--|


8th riff
|------------------------------|
|------------------------------|
|------------------------------|
|------------------------------|
|------------5-6------------6--|
|-3-3-3-3-------3-3-3-3--4-----|

1st riff 4x
2nd riff 2x
1st riff 2x
3rd riff 8x
4th riff 4x
3rd riff 6x
5th riff 4x
6th riff 4x
5th riff 4x
7th riff 4x
8th riff 6x
4th riff 4x
3rd riff 6x
5th riff 4x
6th riff 4x
5th riff 4x
Related for Lowlife tab