Song name
# A B C D E F G H I J K L M N O P Q R S T U V W X Y Z

Cryptopsy - Cold Hate Warm Blood tab

Tuning: B E A D F# B
.    -   palm mute          / - slide up to
\    -   slide down to      ~ - vibrato
h    -   hammer on          b - Bend
p    -   pull off           Suffixes for bend
t    -   tap                f - full bend     h - half bend
ph   -   pinched harmonic   q - quarter bend t - tap bend
*    -   see comment        ^ - Hold bend     r release bend
x    -   Staccato           ~ - vibrato bend
,    -   slight palm mute   () - ghost note, sustained note
"    -   tremolo note       <> - Trill

nh – natural harmonic (lightly touch a string over the fret indicated
                       in TAB and pick)
d - downstroke
u - upstroke

Guitar 1 = Left channel
Guitar 2 = Right channel

Note: it’s hard to get into the rhythm and all the breaks
      (Hey, we’re talking about Cryptopsy...) so listen carefully

Intro:
|-Drum-&-Bass-|
|-------------|
|-------------|
|-------------|
|-------------|
|-------------|

Note: FOR ALL THE CLEAN PARTS:
      ALWAYS SLIDE WITH BOTH FINGERS AND DO NOT CHANGE
      THEM DURING THESE PARTS(OR YOU’LL KILL THE SLIDE EFFECT)
      AND DON’T PICK THE NOTES IN THE BRACKETS BECAUSE
      THESE NOTES ONLY SHOWS YOU WHERE YOU HAVE TO SLIDE TO...

Both guitars 1 time (CLEAN tone)
|-RIFF-A1---------------------------------------------------|
|-----------------------------------------------------------|
|-------5-\(4)----4-/(5)-5-/(7)-7----/-(9)--9----\---7------|
|----7----\(6)-6----/(7)-7-/(9)----9-/(10)----10-\(9)-------|
|-0---------------------------------------------------------|
|-----------------------------------------------------------|

 -RIFF-A2-------------------------------------------|
 ---------------------------------------------------|
 -----10-\----7-/-----9---\-5-/(7)-7----\-5-4-5-----|
 -12-----\-9----/-10----10\-7-/(9)----9-\(7)--7-----|
 ---------------------------------------------------|
 ---------------------------------------------------|
both guitars                 2 times
|-RIFF-B1---------------------------------------------------------------|
|-----------------------------------------------------------------------|
|-----------------------------------------------------------------------|
|-----5---4---5---7----9---7~---------10---7----9---5---7-------5-------|
|-----7---6---7---9---10---9~---------12---9---10---7---9---7-6-7---8---|
|-0-0---0---0---0---0----0--------0-0----0---0----0---0---0---------6---|
  . .   .    .  .   .    .        . .    .   .    .   .   . . .

 -RIFF-B2---------------------------------------------------------------|
 -----------------------------------------------------------------------|
 -----5---4---5---7----9---7~---------10---7----9---5---7---4---5-------|
 -----7---6---7---9---10---9~---------12---9---10---7---9---6---7-------|
 -0-0---0---0---0---0----0--------0-0----0---0----0---0---0---0-----3---|
 -------------------------------------------------------------------1---|
  . .   .   .   .   .    .        . .    .   .    .   .   .   .

both guitars               6 times
|-RIFF-C--------------------------------------------------------|
|---------------------------------------------------------------|
|-8p7p5p0-----------------8p7p5p0-------------------------------|
|-----------6p5p3p0-----------------6p5p3p0---------------------|
|---------------------3-----------------------6p5p3p0---3---2---|
|---------------------1---------------------------------1---0---|
                       .                                .   .
break / both guitars
|------------------------------------------------|
|------------------------------------------------|
|------------------------------------------------|
|-----5---4---5---7----9---2-------5-------------|
|-----7---6---7---9---10---0--3----3--6----9--3--|
|-0-0---0---0---0---0----0----1-------4----7--1--|
  . .   .    .  .    .   .

again RIFF B2 = 1 time
again RIFF B1 = 1 times

break / both guitars
|---------------------------------|
|---------------------------------|
|-----5---4---5---7----9---7~-----|
|-----7---6---7---9---10---9~-----|
|-0-0---0---0---0---0----0--------|
|---------------------------------|
  . .   .   .   .    .   .
again RIFF A2 = 1 time (CLEAN)

guitar one=2 times D1/2 times D2/ 1 times D1
|-RIFF-D1------------------------------|
|---------------------------------9999-|
|--------------------------------------|
|---------888889860-6p5p0-7-0-6666-----|
|--------------------------------------|
|-66664444-----------------------------|
                            .
guitar two only playing D2=5 times (S=SWEEP)
|------------------------------------------|
|------------------------------------------|
|---------------------------------10101010-|
|---------888889860-6----------------------|
|--------------------5--8-----7777---------|
|-66664444------------6-6------------------|
                    SSS .
guitar one last time (sixth time) immediately jumping into next part
|--------------------------------------RIFF-E1----------------------------|
|-------------------------------------------------------------------------|
|---------------------------------1010------------------------------------|
|---------888889860-6-----------------------------------------------------|
|--------------------5--8-----7777-----8\--3------------------------875---|
|-66664444------------6-6--------------6\--1---------------------------987|
                    SSS .                  .
guitar two last time (sixth time) immediately jumping into next part
|--------------------------------------RIFF-E1----------------------------|
|-------------------------------------------------------------------------|
|---------------------------------1010------------------------------------|
|---------888889860-6----------------------10-----------------------------|
|--------------------5--8-----7777-----8---8---11--12---8---9---5---6-----|
|-66664444------------6-6--------------6-------9---10---6---7---3---4-----|
                     SSS .                .   .   . .   .   .   .   .
Both guitars                  2 time
|-RIFF-E1----------------------------------------------------------|
|------------------------------------------------------------------|
|------------------------------------------------------------------|
|-----10------------------------------10---------------------------|
|-8---8---11--12---8---9---5---6------8---11--12---8---9---5---6---|
|-6-------9---10---6---7---3---4----------9---10---6---7---3---4---|
   .   .   .  .    .    .   .    .       .   .  .   .  .   .   .
guitar one                      1 time
|-RIFF-E2--------------------------------------------------------------------|
|----------------------------------------------------------------------------|
|----------------------------------------------------------------------------|
|---10-10-------------------------------10-----------------------------------|
|8-8-8-8-11----12----8---9---5-5-6-6-8---8---11-11-12-12-8-8-9-9--5---6------|
|6-6------9----10----6---7---3-3-4-4-6--------9--9—10-10-6-6-7-7--3---4----|
 . . . . .     .      .   .    . . . . .    . . . . . . . . . . .     .
guitar two
|-RIFF-E2---------------------------------------------------------------------|
|-----------------------------------------------------------------------------|
|-----------------------------------------------------------------------------|
|---10----------------------------------10-10---------------------------------|
|8---8---11-11-12-12-8-8-9-9-5---6---8-8-8-8-11----12----8---9----5-5-6-6-----|
|6--------9—-9-10-10-6-6-7-7-3---4---6-6------9----10----6---7----3-3-4-4---|
 .   .     . . . . . . . . .       .   . . . . .    .    .   .    . . . .

both guitars                  1 time
|-RIFF-E3--------------------------------------------------------------------|
|----------------------------------------------------------------------------|
|----------------------------------------------------------------------------|
|----10-10--------------------------------10-10------------------------------|
|-8-8-8-8-11-11-12-12-8888999955556666-8-8-8—8-11-11-12-12-8888999955556---|
|-6-6------9--9-10-10-6666777733334444-6-6------9--9-10-10-6666777733334-----|
  . . . . . . . .                      . . . . . . . .

|-RIFF-E3--------------------------------------------------------------------|
|----------------------------------------------------------------------------|
|----------------------------------------------------------------------------|
|----10-10--------------------------------10-10------------------------------|
|-----8-8-11-11-12-12-8888999955556666-8-8-8—8-11-11-12-12-8888999955556---|
|----------9--9-10-10-6666777733334444-6-6------9--9-10-10-6666777733334-----|
      . . . . . .                      . . . . . . . .

only guitar one/only guitar two/ both guitars...
|-----RIFF-C----|---------------|-----------------------------------------|
|---------------|---------------|-----------------------------------------|
|-----8p7p5p0---|---------------|-----8p7p5p0-----------------------------|
|---------------|-----6p5p3p0---|---------------6p5p3p0-------------------|
|---------------|---------------|-3-----------------------6p5p3p0---3---2-|
|---------------|---------------|-1---------------------------------1---0-|
                                  .                                 .   .

again RIFF C = 3 times


guitar two        1 time
|-RIFF-F--------------------------------------|
|-------4--/--7---------4--/--7--/--13--\-----|
|-------5--/--8---------5--/--8--/--14--\-----|
|-4-4-------------4-4-------------------------|
|-6-6-------------6-6-------------------------|
|---------------------------------------------|
  . .             . .
guitar one (chords)
|---------------------------------------------|
|-----------------------------------13--\-----|
|-----------------------------------14--\-----|
|-4-4-------------4---------------------------|
|-6-6-------------6---------------------------|
|---------------------------------------------|
  .               .
both guitars       4 times
|-RIFF-F----------------------------------------|
|-------4--/--7---------4--/--7--/--13--\--10---|
|-------5--/--8---------5--/--8--/--14--\--11---|
|-4-4-------------4-4---------------------------|
|-6-6-------------6-6---------------------------|
|-----------------------------------------------|
  . .             . .
both guitars 5 times (fast)
|-RIFF-G---------------------------|
|-1-/-4-/-7-\-4-/-7-/-10-/-13-\-10-|
|-2-/-5-/-8-\-5-/-8-/-11-/-14-\-11-|
|----------------------------------|
|----------------------------------|
|----------------------------------|

SOLO:
again   RIFF   B2   =   1   time
again   RIFF   B1   =   1   time
again   RIFF   B2   =   1   time
again   RIFF   B1   =   1   time

(under solo)          2 times
|-RIFF-H--------------------------------------------|
|---------------------------------------------------|
|---------------------------------------------------|
|-5---7---9---5---7---9---10---7---10---9---7---9---|
|---7---7---7---7---9---9----9---9----6---6---6---6-|
|---------------------------------------------------|
    .   .    .  .   .   .    .   .    .   .    .  .
 --------------------------3-------------------|
 -------------1------------3-------------------|
 -------------0------------0-------------------|
 -2-----------2--------0-------2---3---4---9---|
 -2-----3-0-3-3--------2-------3~--4~--5~----7-|
 -0--------------------------------------------|
        . . .                                .


 SOLO - Jon Levasseur (2:14)
  Gtr. 3
||-17-20191719171617192019171917161719201917191716/22bf~r24b-|
||-----------------------------------------------------------|
||-----------------------------------------------------------|
||-----------------------------------------------------------|
||-----------------------------------------------------------|
||-----------------------------------------------------------|

 Gtr. 3
|-21-20h2118\17201817171817h18p17--17---------171817------------|
|--------------------------------19--191816/17------1918--------|
|-------------------------------------------------------1818\17~|
|---------------------------------------------------------------|
|---------------------------------------------------------------|
|---------------------------------------------------------------|

 Gtr. 3
|-201917------191715------171514--------------------1514--14---------------|
|-------201917------191716------1716--------------------17--16-------------|
|-----------------------------------1717\16-1417\16~-----------1312101310~-|
|--------------------------------------------------------------------------|
|--------------------------------------------------------------------------|
|--------------------------------------------------------------------------|
 Gtr. 3
|------------------------------------------------------15-1313131313bf~r-|
|----16------------------------------------------------------------------|
|-------17----17p16~16\-14----14-16-17-16-16h17p16-----------------------|
|--------------------------14----------------------17~-------------------|
|-18-------18------------------------------------------------------------|
|------------------------------------------------------------------------|

 Gtr. 3
|---------------------------------------------|
|----12----------------------13-------12------|
|-10----10-13-------------12----10-10----9~~~-|
|-------------12-14h15p14~--------------------|
|---------------------------------------------|
|---------------------------------------------|

  Gtr. 3
|-0-11p0-0-12p0-14p0---15p0-0h14-0-19p0---17p0-17-15h17p15p14h15-0-20bf~~r-|
|--------------------0------------------0----------------------------------|
|--------------------------------------------------------------------------|
|--------------------------------------------------------------------------|
|--------------------------------------------------------------------------|
|--------------------------------------------------------------------------|
|                                                                          |
|Gtr. 4                                                                    |
|-0-11p0-0-12p0-14p0---19p0-0h17-0-22p0---20p0-20-19h20p19p17h19-0-20bf~~r-|
|--------------------0------------------0----------------------------------|
|--------------------------------------------------------------------------|
|--------------------------------------------------------------------------|
|--------------------------------------------------------------------------|
|--------------------------------------------------------------------------|

 Gtr. 3 (Backing Riff - RIFF H)
|-19bh~~~~~~------------------------------------------------------------------|
|-----------------------------------------------------------------------------|
|------------------------------------------14-16-17-16-14-16-14---------------|
|---------------------------------------17----------------------17-16bh~14bq~-|
|-----------------------------------------------------------------------------|
|-------------12-14-12-14h15p14~~~~~~~~---------------------------------------|

 Gtr. 3
|-----12h15p12---------12h17t22p17-----12h1715151715---------------|
|---13--------13-----13--------------13----------------------------|
|-12------------12/14--------------14------------------------------|
|------------------------------------------------------------------|
|----------------------------------------------------12-14-14bh~~~-|
|------------------------------------------------------------------|

 Gtr. 3
|-----------------20p17---------------------------------------------------|
|-20p17---20p17--------19-------------------------------------------------|
|------17~-----18~-------17--------------------16-17-16~-16\14-16\12-1212-|
|--------------------------------16--17-16--------------------------------|
|---------------------------19~------------15~----------------------------|
|-------------------------------------------------------------------------|

 Gtr. 3
|-----------------(15)/17--------15-14---/19--------------------------------|
|-------------------------12//15-------------17/19-19/20--------------------|
|-14\12-11/12-1212---------------------16-----------------------------------|
|--------------------------------------------------------19\17~~~~~--17--16-|
|---------------------------------------------------------------------------|
|---------------------------------------------------------------------------|

 Gtr. 3
|-----------------------*-Backing Riff - Riff I--------------------||
|-----------------------*------------------------------------------||
|-----------------------*------------------------------------------||
|-17bq~~r~~bq~~r--14\12-14~~~~-16~~~~-14~~13~~17171614-/16~--14\---||
|-----------------------*------------------------------------------||
|-----------------------*------------------------------------------||
both guitars                 1 time                      ()=only guitar two
|-RIFF-I--------------------------------------------------------------------|
|-----------------------------------------------------------------55555555--|
|----------------------------------------------------------------(55555555--|
|-5555777799995555777799991010101077771010101099997777999955555555----------|
|-7777777777777777999999999999999999996666666666666666666677777777----------|
|---------------------------------------------------------------------------|


------------------------------------------------------------------|
------------------------------------------------------------------|
------------------------------------------------------------------|
-222222222222222222222222--------2222222222222222-----------------|
-3333333333333333333333332222222233333333333333335555555555555555-|
-------------------------22222222----------------7777777777777777-|

again RIFF A1&A2 = 1 time (CLEAN)

(play chord with distortion & RIFF a3 again CLEAN)    1 time
|---|-RIFF-A3---------------------------------------------------------|
|---|-----------------------------------------------------------------|
|---|-----------------------------------------------------------------|
|---|-------5-\(4)----4-/(5)----5-/(7)----7-/-(9)-----9-\(7)----7-----|
|-2-|----7----\(6)-6----/(7)-7----/(9)-9----/(10)-10----\(9)-9--------|
|-0-|-0---------------------------------------------------------------|
  .
 ----------------------------------------------------|
 ----------------------------------------------------|
 ----------------------------------------------------|
 -----10-\----7-/-----9-\----5-/----7-\----5-4-5-----|
 -12-----\-9----/-10----\-7----/-9----\-7------7-----|
 ----------------------------------------------------|

again RIFF C = 4 times
again RIFF I = 2 times
again RIFF D = 5 times (guitar one = 2 times D2/2 times D1/ 1 timeD2)
                             exact the opposite than before
                             (and guitar two = 5 times D2)

break / both guitars
|-----------------------------------------------------|
|-----------------------------------------------------|
|-----------------------------------------------------|
|-----5---4---5---7----9---7~---------10---7----9---5-|
|-----7---6---7---9---10---9~---------12---9---10---7-|
|-0-0---0---0---0---0----0--------0-0----0---0----0---|
  . .   .   .   .    .   .        . .    .   .    .

 -----------------------------------|
 -----------------------------------|
 -----------------------------------|
 ----10-10--------------------------|
 -8-8-8-8-11-11-12-12-8888999955556-|
 -6-6------9--9-10-10-6666777733334-|
  . . . . . . . .

   ending both guitars
|----------------------||
|----------------------||
|----------------------||
|------------------2---||
|-2h3-----8/9---3--2---||
|-0h1-----6/7---1--0---||
                .
End.
Tap to rate this tab
# A B C D E F G H I J K L M N O P Q R S T U V W X Y Z