Song name
# A B C D E F G H I J K L M N O P Q R S T U V W X Y Z

Cryptopsy - Pathological Frolic tab

PATHOLOGICAL FROLIC  Cryptopsy  Blasphemy Made Flesh

Tuning (Low - High): B E A D F# B


Intro
|-------------------------|----------------------|
|--------------------4----|-----------------4----|
|-\--2-----4-----5---2-4--|-2-----4-----5---2-4--|
|-\--0-0-0-2-0-0-3-0---2--|-0-0-0-2-0-0-3-0---2--|
|      . .   . .   .          . .   . .   .
|                                   Backing guitar
|-------------------------|----------------------|
|-------------------------|----------------------|
|----2--------------------|-2-2------------------|
|----0--------------------|-0-0------------------|
                            . . 
A                Play twice
|-------------------------|
|-----------------4-------|
|-2-----4-----5---2-4-----|
|-0-0-0-2-0-0-3-0---2-----|
|   . .   . .   .         |
|                 Backing guitar
|-------------------------|
|-------------------------|
|-------------------------|
|-0-0-0-0-0-0-0-0-0-0-0-0-|
  . . . . . . . . . . . . 

Repeat A (both guitars) x 8

B
|--------------------------|---------------------------|
|--------------------------|---------------------------|
|-----22332222------22-----|-----22332222------22------|
|-0000--------335555--3322-|-0000--------335555---3322-|
|                                       Backing guitar |
|--------------------------|---------------------------|
|--------------------------|---------------------------|
|-2------------------------|---------------------------|
|-0------------------------|-0-----0-----0-----0--3322-| 


B1 (both guitars)       Play twice
|--------------------------|
|--------------------------|
|-----22332222------22-----|
|-0000--------335555--3322-|

B2              Play 4 times
|--------------------------|
|---------Ah---------------|
|-----22332---------22-----|
|-0000--------335555--3322-|


C        [1,3]               [2]                [4]
|------------------|------------------|------------------|
|------------------|------------------|------------------|
|-----223322225555-|-----223322226666-|-----22332222-----|
|-0000-------------|-0000-------------|-0000--------3333-|

Repeat B2 x 4, C 
 
D1                                            Play 4 times
|--------------------------------------------------------|
|--------------------------------------------------------|
|-2-----------------------------------------------6----5-|
|-0-----------------------------------------------4----3-|


D2                                            Play 8 times
|--------------------------------------------------------|
|--------------------------------------------------------|
|-------------------------------------------------6----5-|
|-0-0-0-0-0-0-0-0-0-0-0-0-0-0-0-0-0-0-0-0-0-0-0-0-4----3-|
  . . . . . . . . . . . . . . . . . . . . . . . .


E  [1-3]      [4]
|---------|---------|
|---------|---------|
|-5-4-5-8-|-5---5-7-|
|-3-2-3-6-|-3-0-3-5-|
              .

Repeat E x 8


B3 (under solo)       Play 12 times
|---------------------------------|
|---------------------------------|
|-----2-3-2---------------2-------|
|-0-----------3---5-----------3-2-|


Repeat B3 x 2 with B3

B3
|---------------------------------|
|-----2---------------------------|
|-------3-2-------3-------5-------|
|-0-----------3---------------3-2-|


Repeat B3 x 2 with B3

B3
|-----4---------------------------|
|-------5-4---------------4-------|
|-------------5---7---------------|
|-0---------------------------3-2-|


Fill 1
|--------------------------|
|--------------------------|
|-----22332222------22-----|
|-0000--------335555--3322-|
|           Backing guitar |
|--------------------------|
|--------------------------|
|---------------------5-4--|
|---------------------3-2--|
                      . .


Repeat B1 x 4, B2 x 4, C x 4
 
Fill 2
|---------------------------------|
|---------------------------------|
|-5-4-3-8-5-4-5-8-5-4-5-8-6---5-7-|
|-3-2-3-6-3-2-3-6-3-2-3-6-3-0-3-5-|
| . . . . . . . . . . . . . . . . |
|                 Backing guitar  |
|---------------------------------|
|---------------------------------|
|-------------------------6---5-7-|
|-------------------------3-0-3-5-|


|---------------------------------|
|---------------------------------|
|-5-4-3-8-5-4-5-8-5-4-5-8-6---5-7-|
|-3-2-3-6-3-2-3-6-3-2-3-6-3-0-3-5-|
| . . . . . . . . . . . . . . . . |
|                 Backing guitar  |
|---------------------------------|
|---------------------------------|
|-5-5-5-5-5-5-5-5-5-5-5-5-5-5-5-5-|
|-3-3-3-3-3-3-3-3-3-3-3-3-3-3-3-3-|
  . . . . . . . . . . . . . . . .


Repeat E x 8

Outro
|-----------------|
|-----------------|
|-2---------------|
|-0---------------|
  pmh       

The End.
Tap to rate this tab
# A B C D E F G H I J K L M N O P Q R S T U V W X Y Z