Song name
# A B C D E F G H I J K L M N O P Q R S T U V W X Y Z

Cryptopsy - Phobophile tab

Cryptopsy - Phobophile

from NONE SO VILE

This is all I have, afterwards the riff sounds too blurry for me.
Might have some mistakes, but it sounds good to me.

Bass Intro
|---------------------------|-----------------|
|-------2--------0----------|-----------------|
|----2-----2--3-----3-2-0---|---0-3---2-3-2-0-|
|-0-----------------------3-|-1-----1---------|

Just tremolo pick the notes when guitar comes in

Simple riff played twice afterwards

|-----------------|-----------------|
|-----------------|-----------------|
|-----------------|--------3--------|
|-0---------------|-1---------------|

tabbed by Seb jpaincha@videotron.ca
Tap to rate this tab
# A B C D E F G H I J K L M N O P Q R S T U V W X Y Z