Song name
# A B C D E F G H I J K L M N O P Q R S T U V W X Y Z

Cryptopsy - Defenestration tab

DEFENESTRATION - Cryptopsy - Blasphemy Made Flesh

Rhythm Guitar Transcribed on Bass
Tuning (Low - High): B E D A


Intro (Clean Twangy Guitar)        
|----------------------------------|---|
|-------5-----6--5--------5-----6--|---|
|-7--6--3--5--4--3-----6--3--5--4--|---|
|-5--4-----3-------/5--4-----3-----|---|


A1		   Play 4 times
|-------------------------|
|-----5---6-5-----5---6-5-|
|-7-6-3-5-4-3-7-6-3-5-4-3-|
|-5-4---3-----5-4---3-----|

A2		   Play 4 times
|-------------------------|
|-------------------------|
|-----33--4433----33--5544|
|-5544--33----5544--33----|

Repeat A1 x 2

B1  (right channel)
|-----------------|-----------------|
|-----------------|-----------------|
|---------444433--|---------444433--|
|-22223255------55|-22223255------55|
B1 (left channel)
|-----------------|-----------------|
|-------------5---|-----------------|
|-------------3765|-4---------------|
|--------------543|-2----------/-x-\|    slide finger up & down neck
              pm..
   
B2    Play 12 times
|-----------------|
|-----------------|
|---------444433--|
|-22223255------55|

C1
|---------------------------------|
|-----5-------3---2---------------|
|-6---3---4---1---0---2---5-3-2---|
|-4-------2-----------0---3-1-0---|
                      pm......

C2 (bass)
|-------------3---2---------------|
|---------------------------------|
|-----3---------------------------|
|-4-------2-----------0---3-1-0---|
C2 (guitars)
|---------------------------------|
|---------------------------------|
|---------------------2---5-3-2---|
|---------------------0---3-1-0---|
                      pm......

Repeat C2

C3               P.H.
|-----------------2~--------------|
|-----5-------3-------------------|
|-6---3---4---1-------2---5-3-2---|
|-4-------2-----------0---3-1-0---|
                      pm......

Repeat C3

C4               P.H.
|---------------------------------|
|-----5-------3---2~--------------|
|-6---3---4---1-------2---5-3-2---|
|-4-------2-----------0---3-1-0---|
                      pm......

Repeat (C3 + C4) x 3

D1							             Play 3 times
|---------------------------------|-------------------------------|
|---------------------------------|-------------------------------|
|---------5/6\5\3-----2---2---2---|---------5/6\5\3-----2---3---5-|
|-1-1-1-1-3/4\3\1-0-0-0-0-0-0-0-0-|-1-1-1-1-3/4\3\1-0-0-0-0-1-0-3-|
  pm......        pm..  .   .   .   pm......        pm..  .   .

D2							      
|---------------------------------|-----------------------------|
|---------------------------------|-----------------------------|
|---------5/6\5\3-----2---2---2---|---------5/6\5\3-----2---3---|
|-1-1-1-1-3/4\3\1-0-0-0-0-0-0-0-0-|-1-1-1-1-3/4\3\1-0-0-0-0-1-0-|
  pm......        pm..  .   .   .   pm......        pm..  .   .


E                     Play 12 times
|---------------------------------|
|---------------------------------|
|-77778888----7777----666666666666|
|---------7777----7777------------|

Fill 1
|-------------------|
|-------------------|
|-6-----------------|
|-4-----------------|

Repeat A1 x 4

Fill 2 (bass)
|-------------------------------------|
|-------------------------------------|
|-------3-----4--3--------3-----4--3--|
|-5--4-----3--------5--4-----3--------|
Fill 2 (guitars)
|-------------------------------------|
|-------------------------------6--5--|
|-------------------------------4--3--|
|-------------------------------------|
                                pm....

F		   Play 2 times
|-------------------------|
|-----5---6-5-----5---6-5-|
|-7-6-3-5-4-3-7-6-3-5-4-3-|
|-5-4---3-----5-4---3-----|

Repeat A1 x 3, B1, B2 x 8, D1 x 3

Fill 3
|---------------------------------|------------------------------|
|---------------------------------|-------------------------*----|
|---------5/6\5\3-----2---2---2---|---------5/6\5\3-----2---6\\\-|
|-1-1-1-1-3/4\3\1-0-0-0-0-0-0-0-0-|-1-1-1-1-3/4\3\1-0-0-0-0-4\\\-|
  pm......        pm..  .   .   .   pm......        pm..  .   

* slide fingers down neck (think this chord is right)

G1                     Play 8 times
|---------------------------------|
|-------------4---3---------------|
|-----4---5---2---1---6---5---4---|
|-3-3-2---3-----------4---3---2---|
  pm..


G2                     Play 3 times
|---------------------------------|
|---------------------------------|
|---------------------22221111----|
|-33332222333322223333--------4444|


G3
|---------------------------------|
|---------------------4---3-------|
|-----4---5---4---5---2---1---6---|
|-3-3-2---3---2---3-----------4---|
  pm..................

Fill 4
|---------------------------------|
|---------------------------------|
|-5-5-5-5-5-5-5-5\\-5-5-5-5-5-5-5-|
|-3-3-3-3-3-3-3-3\\-3-3-3-3-3-3-3-|
  pm............................

Repeat E x 8, D1 x 2


Outro
|-------------------------|
|-------------------------|
|---------5/6\5\3-----3-2-|
|-1-1-1-1-3/4\3\1-0-0-1-0-|
  pm......        pm....


Well, BMF may not be as good as NSV but this song is brilliant
with the added bonus of being fairly easy to play too!
Have fun guys and corrections to the usual address.

Lal :)
--------------------
chtorran@hotmail.com
Tap to rate this tab
# A B C D E F G H I J K L M N O P Q R S T U V W X Y Z