Guitaretab - guitar tabs
Song name
# A B C D E F G H I J K L M N O P Q R S T U V W X Y Z

Cryptopsy - Memories Of Blood tab

Band: Cryptopsy
Album: Blasphemy Made Flesh
Song: Memories of Blood
 
Code:
Suffixes for bend:
fb - full bend       hb - half bend
qb - quarter bend    t - tap bend
^ - Hold bend        r - release bend
~ - vibrato bend

Suffixes for harmonic:
ph - pinched harmonic      nh  natural harmonic
ah  artificial harmonic   hh  harp harmonic

Suffixes for mute:
.  palm mute            x  staccato mute
, - light palm mute      ; - heavy palm mute

Other:
/ - slide up to            \ - slide down to       
h - hammer on              p - pull off
 - sustained note         * - see comment
" - tremolo note           <> - Trill
L  left channel only      R  right channel only
= - 12 string guitar part

Tuning B E A D F# B

Intro (0:00)
|-----------|
|-----------|
|-----------|
|-----------|
|-5-\4--4~--|
|-3-\2------|

Riff 1a (0:00) play 5 times
|-------------------------------------------------|
|-------------------------------------------------|
|-------------------------------------------------|
|-------------6-----4--3--4--3--------------4--3--|
|-4--4--4--4--4--4--2--1--2--1--5-----5--4--2--1--|
|-2--2--2--2-----2-----------------4--3--2--------|

Riff 1b (0:16)
|-------------------------------------|
|-------------------------------------|
|-------------------------------------|
|-------------6-----4--3--4--3--7-----|
|-4--4--4--4--4--4--2--1--2--1--5--6--|
|-2--2--2--2-----2-----------------4--|

Riff 2 (0:19) play 6 times
|-------------------------------------------------------------|
|-------------------------------------------------------------|
|-------------------------------------------------------------|
|-------------------------6-----------------4--4--4--4--4-----|
|-------------------6--5--4--5--------------2--2--2--2--2--6--|
|-4-444-4-444-4-444-4--3-----3--4-444-4-444----------------4--|
  . ... . ... . ... .  .  .  .  . ... . ... .  .  .  .  .
[ Tab from: http://www.guitaretab.com/c/cryptopsy/89189.html ]
Riff 3 (0:43)
                               [x1]                             [x5]
|---------------------------------|---------------------------------|
|---------------------------------|---------------------------------|
|---------------------------------|---------------------------------|
|---------------4--4--4--4--4-----|---------------4--4--4--4--4-----|
|-2-----2--6----2--2--2--2--2--6--|-2-----2--6----2--2--2--2--2--6--|
|-0-----0--4-------------------4--|-0-----0--4----2--2--2--2--2--4--|
        .       .  .  .  .  .  .          .       .  .  .  .  .  .

Riff 2 x 1 (1:04)
Riff 1a x 1 (1:36)

Riff 4 (1:48)
                      [x1]                               [x8]
|-------------------------|----------------------------------|
|-------------------------|----------------------------------|
|-------------------------|----------------------------------|
|-------------6-----------|-----------------6666-------------|
|-------7--5-----6--8--7--|---------77775555----666688887777-|
|-0--6--------------------|-00006666-------------------------|
  .  .  .  .  .  .  .  .

Riff 5 (2:02) play 6 times
|----------------------------|
|----------------------------|
|----------------------3ph~--|
|----------------------------|
|-2--2--2--2--2--2--2--------|
|-0--0--0--0--0--0--0--------|
  .  .  .  .  .  .  .

Riff 4 x 1 (2:15)

Riff 6a (2:34) play 4 times
|-----------------------|
|-----------------------|
|-----------------------|
|-7----6----7--4--------|
|-5----4----5--2--5--8--|
|-5----4----------3--6--|

Riff 6b (2:42) play 4 times
|-----------------------------------|
|-----------------------------------|
|-----------------------------------|
|-----------------------------------|
|-55555555--------55552222----------|
|---------22222222--------33336666--|

Riff 1a x 1 (2:48)
Riff 1b x 1 (2:57)
Riff 2 x 1 (3:00)
Riff 1a x 1/5 (3:25)
Riff 1b x 1 (3:28)

End (3:31)
|-----|
|-----|
|-----|
|-----|
|-5---|
|-3---| 
Related for Memories Of Blood tab