Song name
# A B C D E F G H I J K L M N O P Q R S T U V W X Y Z

Crystal Castles - Untrust Us tab

This is just the basic melody that plays throughout the song, I've adapted the singing 
techno sounds to guitar. Hope you enjoy


Intro:

---3-0-0-0----0-0-0--3-0-0-0-----0-0-0-----|
------------3-----------------3------------|
-------------------------------------------|
-------------------------------------   ---|Repeat about 3 times
-------------------------------------------|
-------------------------------------------|


Main Tune:

---5--0--0--0----1--1--1--1-----------|
--------------------------------------|
--------------------------------------|
--------------------------------------|
--------------------------------------|
--------------------------------------|


---8-----8----------8-----------------|
------8------8----------10--10--------|
--------------------------------------|
--------------------------------------|
--------------------------------------|
--------------------------------------|

Thats basically it, listen to the song to get the rythym of it.
Tap to rate this tab
# A B C D E F G H I J K L M N O P Q R S T U V W X Y Z