Song name
# A B C D E F G H I J K L M N O P Q R S T U V W X Y Z

Crystal Castles - All The Freaks tab

Help us improve GuitareTab! Take a short survey!
Crystal Pistol (http://www.crystalpistol.com)
All The Freaks

Intro

Riff A (0'0'')
|-------------------222---------------2----|
|-------------------333---------------3----|
|-------------------222---------------2-2--|
|---------------------------------------2--|  x2
|---------------------------------------0--|
|-0h3p0-0h3p0-0p3h0------0p3h0-0p3h0-------|

Riff B (0'10'')
|-------------------222---------------------------|
|-------------------333---------------------------|
|-------------------222---------------------222---|
|-------------------------------------------222---|
|-------------------------------------------000---|
|-0h3p0-0h3p0-0h3p0------0h3p0-0h3p0-0h3p0--------|

|-------------------222---------------2----|
|-------------------333---------------3----|
|-------------------222---------------2-2--|
|---------------------------------------2--|
|---------------------------------------0--|
|-0h3p0-0h3p0-0p3h0------0p3h0-0p3h0-------|


Verse

Riff C (0'20'')
|---------------------------------|
|---------------------------------|
|---------7XXXX-7-----------------| x2
|-6XXXX-6-7XXXX-7-5XXXX-5-2XXXX---|
|-6XXXX-6-5XXXX-5-5XXXX-5-2XXXX---|
|-8XXXX-8---------3XXXX-3-0XXXX---|

Chorus

Riff D (0'31'')
|--------------------------------------------------|
|--------------------------------------------------|
|---------7777777-12121212121212-11111111111111----|
|-7777777-7777777-12121212121212-11111111111111----| x2
|-7777777-5555555-10101010101010-9-9-9-9-9-9-9-----|
|-9999999------------------------------------------|

Intro

Verse

Chorus

Solo (I always improvise here. They play a little riff on the 7th and 9th fret off the D 
G string)

Bridge (Bass plays the same as the verse)

Chorus

Outro = Riff B

For suggestions of corrections please e-mail me: piet_plastuit@hotmail.com
Related for All The Freaks tab