Song name
# A B C D E F G H I J K L M N O P Q R S T U V W X Y Z

Crystal Castles - Doe Deer tab

Tabbed by: Nathanael
 

Tuning: Drop D

                      Intro / Dirty Main Riff:

e|------------------------------------------------------------------|
B|------------------------------------------------------------------|
G|------------------------------11----13-13-------------------------|
D|---13-14-13-11-13----14-14----------------------------------------|
A|------------------11-------11----11-------11----------------------|
D|------------------------------------------------------------------|

                   Or... If you find more confortable
                      
e|------------------------------------------------------------------|
B|------------------------------------------------------------------|
G|------------------------------------------------------------------|
D|---13-14-13-11-13----14-14----16----18-18-------------------------|
A|------------------11-------11----11-------11----------------------|
D|------------------------------------------------------------------|

                           Rhythm is:
e|-----------------------------------------------------------------|
B|-----------------------------------------------------------------|
G|-----------------------------------------------------------------|
D|-2-2-2-2-2-2-2-2-6-6-6-6-6-6-6-6-1-1-1-1-1-1-1-1-4-4-4-4-4-4-4-4-|
A|-2-2-2-2-2-2-2-2-6-6-6-6-6-6-6-6-1-1-1-1-1-1-1-1-4-4-4-4-4-4-4-4-|
D|-2-2-2-2-2-2-2-2-6-6-6-6-6-6-6-6-1-1-1-1-1-1-1-1-4-4-4-4-4-4-4-4-|

e|-------------------------------------------------------------------------|
B|-------------------------------------------------------------------------|
G|-------------------------------------------------------------------------|
D|-2-2-2-2-2-2-2-2-9-9-9-9-9-9-9-9-6-6-6-6-6-6-6-6-11-11-11-11-11-11-11-11-|
A|-2-2-2-2-2-2-2-2-9-9-9-9-9-9-9-9-6-6-6-6-6-6-6-6-11-11-11-11-11-11-11-11-|
D|-2-2-2-2-2-2-2-2-9-9-9-9-9-9-9-9-6-6-6-6-6-6-6-6-11-11-11-11-11-11-11-11-|

e|-----------------------------------------------------------------|
B|-----------------------------------------------------------------|
G|-----------------------------------------------------------------|
D|-2-2-2-2-2-2-2-2-6-6-6-6-6-6-6-6-1-1-1-1-1-1-1-1-4-4-4-4-4-4-4-4-|
A|-2-2-2-2-2-2-2-2-6-6-6-6-6-6-6-6-1-1-1-1-1-1-1-1-4-4-4-4-4-4-4-4-|
D|-2-2-2-2-2-2-2-2-6-6-6-6-6-6-6-6-1-1-1-1-1-1-1-1-4-4-4-4-4-4-4-4-|

e|-------------------------------------------------------------------|
B|-------------------------------------------------------------------|
G|-------------------------------------------------------------------|
D|-2-2-2-2-2-2-2-2-9-9-9-9-9-9-9-9-6-6-6-6-6-6-6-6-6-6-6-6-6-6-6-6---|
A|-2-2-2-2-2-2-2-2-9-9-9-9-9-9-9-9-6-6-6-6-6-6-6-6-6-6-6-6-6-6-6-6---|
D|-2-2-2-2-2-2-2-2-9-9-9-9-9-9-9-9-6-6-6-6-6-6-6-6-6-6-6-6-6-6-6-6---|

                          Repeat Infinitum.
Tap to rate this tab
 
# A B C D E F G H I J K L M N O P Q R S T U V W X Y Z