Song name
# A B C D E F G H I J K L M N O P Q R S T U V W X Y Z

Crystal Castles - Year Of Silence tab

-------------------------------------------------------------------------------
			     Crystal Castles - Year of Silence
-------------------------------------------------------------------------------
Tabbed by: Nathanael

Tuning: Drop D


Intro/Bass throughout

e|----------------------------------------------------------------|
B|----------------------------------------------------------------|
G|----------------------------------------------------------------|
D|---8--8--1--1--4--4--6--6--------8--8--1--1--4--4--6--6---------|
A|----------------------------------------------------------------|
D|--8--8--1--1--4--4--6--6--6--3--8--8--1--1--4--4--6--6--6--3----|


Vocal Part

Minn besti vinur hverju sem dynur
Ég kyngi tári og anda hári

e|-------------------------------------------------------------|
B|-------------------------------------------------------------|
G|--1/3-3--1h3/5-5--3/5/6-6--3/6-5-5---------------------------|
D|-------------------------------------------------------------|
A|-------------------------------------------------------------|
E|-------------------------------------------------------------|

e|-------------------------------------------------------------|
B|-------------------------------------------------------------|
G|--1/5-3-3--1h3/5-5--3/5/6-6--3/6-5-5-------------------------|
D|-------------------------------------------------------------|
A|-------------------------------------------------------------|
E|-------------------------------------------------------------|


This Synth part is repeated throughout the song in several parts. Plenty of delay with 
sounds good!

e|--9----13--16-14-13-------------|
B|----11----------------14--------|
G|--------------------15--15------|
D|--------------------------------|
A|--------------------------------|
D|--------------------------------|

e|--9----13--16-14-13-------------|
B|----11----------------14-16-14--|
G|--------------------------------|
D|--------------------------------|
A|--------------------------------|
D|--------------------------------|


Whole song is just this. Easy enough :)
Tap to rate this tab
 
# A B C D E F G H I J K L M N O P Q R S T U V W X Y Z