Song name
# A B C D E F G H I J K L M N O P Q R S T U V W X Y Z

Crystal Castles - Celestica tab

Hey guys! Since no-one had it up here I thought I should try it. 

Verse

e|-2-2-2-0-----0---2-2-2-0----0-----|
B|---------3-3-------------3--------|
G|----------------------------------|
D|----------------------------------|
A|----------------------------------|
E|----------------------------------|

e|-2-2-2-0-----0-----0-2-----|
B|---------3-3-----3---------|
G|---------------------------|
D|---------------------------|
A|---------------------------|
E|---------------------------|

e|-2-2-2-0-----0---5-5-5-3-2----|
B|---------3-3---------------3--|
G|------------------------------|
D|------------------------------|
A|------------------------------|
E|------------------------------|

e|-2-2-2-0-----0-----0-2-----|
B|---------3-3-----3---------|
G|---------------------------|
D|---------------------------|
A|---------------------------|
E|---------------------------|

Chorus
e|-10-5---3-3-5-2-------| 
B|----------------------| 
G|----------------------| 
D|----------------------| 
A|----------------------| 
E|----------------------| x2


e|-2-2-2-0-----0---5-5-5-3-2----|
B|---------3-3---------------3--|
G|------------------------------|
D|------------------------------|
A|------------------------------|
E|------------------------------|

e|-2-2-2-0-----0-----0-2-----|
B|---------3-3-----3---------|
G|---------------------------|
D|---------------------------|
A|---------------------------|
E|---------------------------| 

Bridge
e|---0-5-3-2-0---0--0--0-----| 
B|-3-----------3-----3-------| 
G|---------------------------| 
D|---------------------------| 
A|---------------------------| 
E|---------------------------|

e|-5-5-2---5-7-2-0---0--0--0----| 
B|-------3---------3-----3------| 
G|------------------------------| 
D|------------------------------| 
A|------------------------------| 
E|------------------------------| x2

Chorus

Verse


Hope that helped, first tab so suggestions helpful! :)
Tap to rate this tab
 
# A B C D E F G H I J K L M N O P Q R S T U V W X Y Z