Song name
# A B C D E F G H I J K L M N O P Q R S T U V W X Y Z

Crystal Lynn - Take It Slow tab

Help us improve GuitareTab! Take a short survey!
Long Beach Shortbus - Take It Slow
http://www.skunk.com/shortbus/


_____INTRO__________________________<00:00>


e|------------------------------------------|
b|-----7--------7--------7-----7---7h8--7---|
g|-6h7---7--6h7---7--6h7---7-----7--------7-|
d|------------------------------------------|
a|------------------------------------------|
E|------------------------------------------| x2

			            <00:18> 

D B F# G
Jesus loves me yes I know
Caught the dragon by his toe

D B C G A  
If I holler don't let go
Girl you've got to take it slow

                                    <00:51>
e|-------------|
b|-------------|
g|-------------|
d|-------------|
a|-----5-5---5-|
E|-5h7-----7---| x4


_____VERSE__________________________<01:02>

D Cm G (reggae style)

Roll down the window if you're in your car
Cool down the middle, don't go too far
Flashing lights behind us make you scared
I keep on driving like they're not even there


_____PRE-CHORUS_____________________<01:23>

 A# Dm A G A

The road is rocky yeah
Nothing's fair
But that's life baby
Slow it down, daddy's here


_____CHORUS_________________________<01:33>

D5 F#5 G5

Girl I know it's been a long time
Take it slow
Take it slow
Take it slow

Yes I know it's been a long time
I'm going to hit it slow
Hit it slow
Hit it slow

e|-----------------------|
b|-7h8p7----7h8p7--------|
g|-------7--------7--6/7-|
d|-----------------------|
a|-----------------------|
E|-----------------------|

_____VERSE__________________________<02:03>

D Cm G (reggae style)

Roll down the window and spin the world too
I got further to go, from the bus to the studio
Flashing lights behind us may make you scared
But don't worry about those shadows girl
Because there really ain't nothing there


_____PRE-CHORUS_____________________<02:24>

D  A  F#  G

The road of life is rocky, nothing is fair
But that's just life baby
Slow it down, daddy's here


_____CHORUS_________________________<02:34>

D5 F#5 G5

Girl I know it's been a long time
Take it slow
Take it slow
Take it slow

Yes I know it's been a long time
I'm going to hit it slow
Hit it slow
Hit it slow


_____SOLO___________________________<02:54>


e|-------------------------------------|
b|-----------------------------13----8-|
g|------------------------9/12----/7---|
d|-------12-12--------12---------------|
a|-10h12--------10h12------------------|
E|-------------------------------------|


e|---------------------------------------------------------------|
b|---------------------------------------------------------------|
g|--------------------------9h11-11-11-11-9----9h11-9h11-11p9----|
d|-------12-------12--12-12-----------------12----------------12-|
a|-10h12----10h12------------------------------------------------|
E|---------------------------------------------------------------|


Hit it slow

Hit it slow

e|------------------------------------------------|
b|---------------------------------------------12-|
g|------------------------9/12-12-12/14--12/14----|
d|-------12-12--------12--------------------------|
a|-10h12--------10h12-----------------------------|
E|------------------------------------------------|

e|-------------------------------------|
b|-------------------------------------|
g|--------------------9h11-11-11-11\9--|
d|-------12--------12------------------|
a|-10h12------10h12--------------------|
E|-------------------------------------|



_____CHORUS_________________________


D5 F#5 G5

Girl I know it's been a long time
Gonna take it slow
Take it slow
Take it slow

Yes I know it's been a long time
I'm going to hit it slow
Hit it slow
Hit it slow

Hit it slow
Hit it slow


D (let ring)


_____OUTRO__________________________


e|---------------------------------------|
b|---------------------------------------|
g|--------7---------7---------7----------|
d|-/9-7-9----/9-7-9----/9-7-9---9-7------|
a|----------------------------------9--5-|
E|---------------------------------------| x7


e|-------------|
b|-------------|
g|-------------|
d|-------------|
a|-----5-5---5-|
E|-5h7-----7---| x4
Related for Take It Slow tab