Song name
# A B C D E F G H I J K L M N O P Q R S T U V W X Y Z

Crystal Method - Weapons Of Mass Distortion tab

----------------------------------------------------------------------------
		      WEAPONS OF MASS DISTORTION
                         the crystal method
----------------------------------------------------------------------------
Tabbed by: mäkk
Email: mxxxdxxxx@gmail.com

For those of you who like beated tabs, number+dash is sixteenths, number with three 
is eighths, etc. (16-, 16---)

Here we go.


RIFF I
[Palm mute and it sounds like some delay]
e|--------------------------------------------|
B|---------------------------------14------14-|
G|-----------15-------16---15---------15------|
D|13---13-13----13-13-----------13------------|
A|--------------------------------------------|
E|--------------------------------------------|

e|---------------------------------------------|
B|-------------------------14------------------|
G|-----------15-------16------15-15-16-16------|
D|13---13-13----13-13---------------------13---|
A|---------------------------------------------|
E|---------------------------------------------|(x8)

NEXT:
[unmuted]
e|--------------------------------------------|
B|---------------------------------14------14-|
G|-----------15-------16---15---------15------|
D|13---13-13----13-13-----------13------------|
A|--------------------------------------------|
E|--------------------------------------------|

e|---------------------------------------------|
B|-------------------------14------------------|
G|-----------15-------16------15-15-16-16------|
D|13---13-13----13-13---------------------13---|
A|---------------------------------------------|
E|---------------------------------------------|

e|--------------------------------------------|
B|---------------------------------14------14-|
G|-----------15-------16---15---------15------|
D|13---13-13----13-13-----------13------------|
A|--------------------------------------------|
E|--------------------------------------------|(x2)


MAIN RIFF (everyone's favorite):
[heavy distortion, it sounds like a talk box or wah-wah pedal is used on the slides]
e|-----------------------------------------------------------------|
B|-----------------------------------------------------------------|
G|8-----x-x---6\------/8-------8---8-----x-x---8-----x-x-x-x-x-x-x-|
D|8-----x-x---6\------/8-------8---8-----x-x---8-----x-x-x-x-x-x-x-|
A|6-----x-x---4\------/6-------6---6-----x-x---6-----x-x-x-x-x-x-x-|
E|-----------------------------------------------------------------|(x8)
[You'll probably never quite achieve the sound The Crystal Method has... it sounds like 
a Mesa Boogie, so unless you have one you're probably not going to get it perfect.)

-RIFF I [Gradually palm-mute less and less] (8x)


-MAIN RIFF (3x)


THEN:
e|-----------------------------------------------------------------|
B|-----------------------------------------------------------------|
G|8-----x-x---6\---------------------------13>bend>upward>>>>>>>>>>|
D|8-----x-x---6\---------------------------11>bend>upward>>>>>>>>>>|
A|6-----x-x---4\---------------------------------------------------|
E|-----------------------------------------------------------------|


MAIN RIFF (4x)


rest.


RIFF I (7x)


THEN:
e|--------------------------------------------(REST)|
B|---------------------------------14------14-(REST)|
G|-----------15-------16---15---------15------(REST)|
D|13---13-13----13-13-----------13------------(REST)|
A|--------------------------------------------(REST)|
E|--------------------------------------------(REST)|


MAIN RIFF (4x)

| /  slide up
| \  slide down
| x  chug
============================================================================
Tap to rate this tab
# A B C D E F G H I J K L M N O P Q R S T U V W X Y Z