Song name
# A B C D E F G H I J K L M N O P Q R S T U V W X Y Z

Crystal Skulls - Airport Motels tab

Crystal Skulls - Airport Motels

Tabbed by Hernan Diaz Yevenes.

Standard Tunning

Intro

e|--------------------------------5/7-5-7------------------------------------
B|-------7-9-7---7/8-10-10/12----------------7-10-10-7-10-7-10-9-------------
G|--/6-9-------7--------------7-9--------7-9---------------------9-6-9-------
D|---------------------------------------------------------------------------
A|---------------------------------------------------------------------------
E|---------------------------------------------------------------------------

e|-----------17-15------------------------------|
B|------------------------------12--------------|
G|--11-12-14-------12--11-12-14---7-4-7-4-9-11--|
D|----------------------------------------------|
A|----------------------------------------------|
E|----------------------------------------------|

Verse (x2)

"I can't, I can't remember forgetting everything..."
                                           
e|--------------------------------------|
B|--------------------3p0--2p0--3p0--7--|
G|--6--------6--6--9-----------------6--|
D|--x--9--9--4--x--x-------2---------7--|
A|--4--7--7--5--4--7--2----4----2-------|
E|--5--8--9-----5--8--3---------3-------|

Bridge

e|-------------------|
B|---------------10--|
G|----------9-11-----|
D|--9-11-12----------|
A|-------------------|
E|-------------------|

Chorus (x2)

"Waving goodbye, one last time, we may never know why..."

e|-----9----7---5--|
B|--12---10---7----|
G|-----------------|
D|-----------------|
A|-----------------|
E|-----------------|

Solo
 
(x2)
e|----------------------------------------------------------|
B|---------9/10---10/12------12---12-14(bend)-12------------|
G|--------------9---------11---14----------------9/11\9-----|
D|--9/11-9-------------12-------------------------------12--|
A|--0----0--------------------------------------------------|
E|----------------------------------------------------------|

e|---------------------------|
B|--12-----12------12-11-10--|
G|----11-----11----11-11-11--|
D|------12-----12--12-12-12--|
A|---------------------------|
E|---------------------------|

Verse (x2)

"Wake up, get on an airplane, it's always just the same..."

e|--------------------------------------|
B|--------------------3p0--2p0--3p0--7--|
G|--6--------6--6--9-----------------6--|
D|--x--9--9--4--x--x-------2---------7--|
A|--4--7--7--5--4--7--2----4----2-------|
E|--5--8--9-----5--8--3---------3-------|

(After verse repetiton, end with this)

"Those city lights on L.A. remind me as we fly away!"

e|--------|
B|--4--7--|
G|--3--6--|
D|--x--7--|
A|--1-----|
E|--2-----|

Chorus (x2)

"We're waving goodbye, one last time, we may never know why..."

e|-----9----7---5--|
B|--12---10---7----|
G|-----------------|
D|-----------------|
A|-----------------|
E|-----------------|

Ending

e|-----|
B|-----|
G|--6--|
D|--x--|
A|--4--|
E|--5--|

i can't
i can't remember
forgetting everything
it makes me happier
that you are gone
it's been so long now
too many lies
you said you'd let me go
but here we go again
another motel
we used to work so well

waving goodbye
one last time
we may never know why
we just don't care anymore

waving goodbye
one last time
we may never know why
we just don't care anymore

wake up
get on an airplane
it's always just the same
it means much less to us
each time you're here
the money disappears
too many times
i need to let you go
but here we go again
another try
those city lights on l.a.
remind me as we fly away

we're waving goodbye
one last time
we may never know why
we just don't care anymore

waving goodbye
one last time
we may never know why
we just don't care anymore 



| /  slide up
| \  slide down
| h  hammer-on
| p  pull-off
| ~  vibrato
| +  harmonic
| x  Mute note

Tap to rate this tab
# A B C D E F G H I J K L M N O P Q R S T U V W X Y Z