Song name
# A B C D E F G H I J K L M N O P Q R S T U V W X Y Z

Crystal Stilts - Through The Floor tab

standard tuning

this tab is written for the guitar with distortion, but if you want to play the other 
part, just expand the power chords into barre chords and
just listen to the song to get the strum pattern down

intro:
                          C#          A       F#    B
e|-----------|---------|---------|---------|-----------|
B|-----------|---------|---------|---------|-----------|
G|-----------|-------6-|-6-6---6-|---------|-----------|
D|-----------|-------6-|-6-6---6-|-7-7-7--7|-4-4-/-9-9-|
A|-2---2-4-2-|-4-2-0-4-|-4-4---4-|-7-7-7--7|-4-4-/-9-9-|
E|-0---0-0-0-|-0-0-0---|---------|-5-5-5--5|-2-2-/-7-7-|

verse/chorus (same riff):
                           C#          A      F#   B
e|-----------|----------|---------|---------|-----------|
B|-----------|----------|---------|---------|-----------|
G|-----------|--------6-|-6-6---6-|---------|-----------|
D|-9--9-11-9-|-11-9-7-6-|-6-6---6-|-7-7-7--7|-4-4-/-9-9-|
A|-7--7-7--7-|-7--7-7-4-|-4-4---4-|-7-7-7--7|-4-4-/-9-9-|
E|-----------|----------|---------|-5-5-5--5|-2-2-/-7-7-|

bridge:

listen to the track to get a picking pattern that sounds close. kind of hard to tell 
because the reverb, so just play what sounds good to you

     A   F#m   A                            A  A    B  B
e|---5----2----5--      then it        e|---5--5----7--7--|
B|---5----2----5--      goes into a:   B|---5--5----7--7--|
G|---6----2----6--                     G|---6--6----8--8--|
D|---7----4----7--                     D|---7--7----9--9--|
A|---7----4----7--                     A|---7--7----9--9--|
E|---5----2----5--                     E|---5--5----7--7--|

there it is! that's the song baby! all you need to do now is to get the order
down!

here's the official crystal stilts website: http://www.crystalstilts.com/
Tap to rate this tab
 
# A B C D E F G H I J K L M N O P Q R S T U V W X Y Z