Song name
# A B C D E F G H I J K L M N O P Q R S T U V W X Y Z

Cseh Tams - Meztelen Ember chords

Highlighted       Show chord diagrams
Capo nélkül (Without capo the chords): dm gm a#m A7 ;

capo 5

am  dm   fm      E7
-0----1-----1-----------------------------|
-1----3-----1-----0-----------------------|
-2----2-----1-----1-----------------------|
-2----0-----3-----0-----------------------|
-0----0-----3-----2-----------------------|
-------------1----------------------------|

    am                       dm
e--0----0------0-0-1---0---------------------------------------------|
h-----3---------------------3----------------------------------------|
g--------------------------------------------------------------------|
d--------------------------------------------------------------------|
a--------------------------------------------------------------------|
e--------------------------------------------------------------------|
     A minap   vetkőzés közben,

     dm                             fm
e----------------------------0----------------------------------------|
h--1h3-----3-----3----3----3---3---1----------------------------------|
g---------------------------------------------------------------------|
d---------------------------------------------------------------------|
a---------------------------------------------------------------------|
e---------------------------------------------------------------------|
     na nézd csak, egy dal jut eszembe.

     fm                       E7
e--------------------------------------------------------------------|
h---1-1-1----1--1h3------1---0---------------------------------------|
g--------------------------------------------------------------------|
d--------------------------------------------------------------------|
a--------------------------------------------------------------------|
e--------------------------------------------------------------------|
     Dúdolom, s el vagyok veszve.

     E7                         am
e--------------------------------------------------------------------|
h---0--0-0----0--0h1-----0-------------------------------------------|
g------------------------------2-------------------------------------|
d--------------------------------------------------------------------|
a--------------------------------------------------------------------|
e--------------------------------------------------------------------|
   dúdolok, s el vagyok veszve.

Este van, vetkőzöm csendben,
s egy dallam kerülget egyre,
táncol már föl-le a lepke,
dúdolok, s el vagyok veszve.

Átkozott dúdoló dallam,
vetkőzöm én rá a hallban,
lehúzom gyorsan az inget,
dúdolok, a semminek intek.

Az inget, majd a nadrágot,
már mindent dalra csinálok,
átkozott dúdoló dallam,
elkaptál, nincsen nyugalmam.

Fel vagy le, lepkének tánca,
fel-le-fel, jelt írva járja,
fel-le-fel,a szívem csinálja,
ki-kihagy, lázban ugrálva.

Tikitak, szól a falióra,
mit akarsz, várok egy szóra,
mi lehet az, ami kéne,
mit akarsz, éjszaka réme.

Bezuhog az éjszaka csendje,
mit akarsz, űrből üzenve,
miz üzensz, meztelen állok,
dadogok, ütemre kiáltok.

Meztelen, meztelen ember,
énekel szemben a csenddel,
dúdolom, s el vagyok veszve,
dúdolok, s el vagyok veszve.

Mit akarsz, éjszaka csendje,
mit akarsz, űrből üzenve,
megtezem, el vagyok veszve,
a szívem üt, üt-ver ütemre.

A szívem üt, üt-ver ütemre,
mit akarsz, te éjszaka csendje,
megteszem, el vagyok veszve,
mit akarsz, űrből üzenve.

Meztelen, meztelen ember,
énekel szemben a csenddel,
meztelen, meztelen ember,
mit akarsz, szemben a csenddel.
Tap to rate this tab
 
# A B C D E F G H I J K L M N O P Q R S T U V W X Y Z