Css - Hollywood tab

Hollywood by Cansei de ser sexy!!! :D

|-----------------------------|
|-----------------------------|
|-----------------------------|
|-9-9-9--7-7-7--5-5-5--2-2-2--|          
|-9-9-9--7-7-7--5-5-5--2-2-2--|
|-7-7-7--5-5-5--3-3-3--0-0-0--|


|--------------------------------------|
|--------------------------------------|
|--------------------------------------|
|-----9-------7-------5--2-2-2---------|
|---9---9---7---7---5----2-2-2---------|
|-7-------5-------3------0-0-0---------|
Tap to rate this tab
 
# A B C D E F G H I J K L M N O P Q R S T U V W X Y Z