Song name
# A B C D E F G H I J K L M N O P Q R S T U V W X Y Z

Css - Music Is My Hot Hot Sex tab

-------------------------------------------------------------------------------
			     Music is my hot hot sex - CSS
-------------------------------------------------------------------------------
Tabbed by: Lucca
Email: 292999@live.com

Tuning:Standard

Guitar 1: Go freestyle on strumming pattern

e|------x-----x-----x------x------x------x-----------------------------------------|
B|------x-----x-----x------x------x------x-----------------------------------------|
G|------x-----x-----x------x------x------x-----------------------------------------|
D|------6-----9-----8------9------2------4-----------------------------------------|
A|------6-----9-----8------9------2------4-----------------------------------------|
E|------4-----7-----6------7------0------2-----------------------------------------|


Guitar 2: Spice up the strumming rhythm for better sound

e|-----------6-/-7--7--9---7------------6-/-7----6-/-7----6----7---------------------------|
B|-----------8-/-9--9--9---9------------8-/-9----8-/-9----7----9---------------------------|
G|-----------7-/-8--8--8---8------------8-/-9----8-/-9----6----8---------------------------|
D|-----------x-/-x--x--x---x------------x-/-x----x-/-x----x----x---------------------------|
A|-----------x-/-x--x--x---x------------x-/-x----x-/-x----x----x---------------------------|
E|-----------x-/-x--x--x---x------------x-/-x----x-/-x----x----x---------------------------|

+++I have missed several strums because i got tired of typing them in, but those are the 
only tabs used throughout the song+++


CHORUS:

e|---x-----x--------------x--x--x--x--7--6-----------------------------------|
B|---7-----9--------------7--9--7--9--x--x-----------------------------------|
G|---------------------------------------------------------------------------|
D|---------------------------------------------------------------------------|
A|---------------------------------------------------------------------------|
E|---------------------------------------------------------------------------|

************************************

| /   slide up
| \   slide down
| h   hammer-on
| p   pull-off
| ~   vibrato
| +   harmonic
| x   Mute note
| b   Bend
| pb  Pre-bend
| br  Bend release
| pbr Pre-bend release
| brb Bend release bend

************************************
Tap to rate this tab
 
# A B C D E F G H I J K L M N O P Q R S T U V W X Y Z