Song name
# A B C D E F G H I J K L M N O P Q R S T U V W X Y Z

Css - Meeting Paris Hilton tab

-------------------------------------------------------------------------------
			     Meeting Paris Hilton - CSS
-------------------------------------------------------------------------------
Tabbed by:Mucky
Email:Muckyakamrcool@hotmail.com

Tuning:EADGBe


Intro:x8
e|-----------------------------------------|
B|-----------------------------------------|
G|-----------------------------------------|
D|6-6-6-6-6---9-9-9---2-2-2-2-2---4-4-4----|
A|6-6-6-6-6---9-9-9---2-2-2-2-2---4-4-4----|
E|4-4-4-4-4---7-7-7---0-0-0-0-0---2-2-2----| 

Verse: x8
e|-----------------------------------------|
B|-----------------------------------------|
G|-----------------------------------------|
D|6-6-6-6-6---9-9-9---2-2-2-2-2---4-4-4----|
A|6-6-6-6-6---9-9-9---2-2-2-2-2---4-4-4----|
E|4-4-4-4-4---7-7-7---0-0-0-0-0---2-2-2----| 

Chorus: x2

e|----------------------------------------|
B|----------------------------------------|
G|----------7-7-7-7-----------------------|
D|9-9-9-9---7-7-7-7---9-9-9-9---5-5-5-5---|
A|9-9-9-9---5-5-5-5---9-9-9-9---5-5-5-5---|
E|7-7-7-7-------------7-7-7-7---3-3-3-3---| 

Bridge: x8 (struck softer than chorus)

e|----------------------------------------|
B|----------------------------------------|
G|----------7-7-7-7-----------------------|
D|9-9-9-9---7-7-7-7---9-9-9-9---5-5-5-5---|
A|9-9-9-9---5-5-5-5---9-9-9-9---5-5-5-5---|
E|7-7-7-7-------------7-7-7-7---3-3-3-3---| 

End on:
e|---
B|---
G|---
D|-6-
A|-6-
E|-4-


Structure:

Intro
Verse
Chorus
Verse
Chorus
Bridge
Chorus
Verse
----------------------------------------------------------------------------
| /  slide up
| \  slide down
| h  hammer-on
| p  pull-off
| ~  vibrato
| +  harmonic
| x  Mute note
===============================================================================
Tap to rate this tab
# A B C D E F G H I J K L M N O P Q R S T U V W X Y Z