Song name
# A B C D E F G H I J K L M N O P Q R S T U V W X Y Z

Cue C - Ang Ganda Mo tab

ANG GANDA MO - CUE C (MAIN RIFF ON GUITAR)

Hi guys! This is my First time Submitting a Tab here, I Noticed there wasn't
a tab for this song so I Decided to upload it... This song Contains some of
the most Green-minded Lyrics I've ever heard of... Now don't get me Wrong, 
I'm not a Green minded person, I was just playing random scales on my Guitar
then I came across this, and I was like.. "Huh... wait a minute, that sounds 
like that Green-minded song my Friends keep singing!" after a Few teaks I 
came up with this, The Tuning is Standard, This will be easy if you are 
familiar with a Few basic Scales. Good luck, And have Fun!



  MAIN RIFF
1|-------------------9-9-9---9--------------------------------------|
2|-------9--11--12--------------12--11--9-9---11--9---------11-11-11|
3|---11----------------------------------------------11--10---------|
4|------------------------------------------------------------------|
5|------------------------------------------------------------------|
6|------------------------------------------------------------------|

1|------------------------------------------------------------------|
2|---11--9----------------------------------------------------------|
3|-----------11--10--11---------Repeat Until INFINITY---------------|
4|------------------------------------------------------------------|
5|------------------------------------------------------------------|
6|------------------------------------------------------------------|

Alright guys, this is the Riff for the Whole song mostly... Also... a word of
Advise. This song was not mean't for Serenading. It will end Badly. Have 
Fun... I guess. 

Like "Cue C" on Facebook! http://www.facebook.com/victorcuec
Tap to rate this tab
# A B C D E F G H I J K L M N O P Q R S T U V W X Y Z