Song name
# A B C D E F G H I J K L M N O P Q R S T U V W X Y Z

Cuentos Borgeanos - Andorondack tab

Intro
e|-------------------------------------------------------------------|
B|-------------------------------------------------------------------|
G|-------------------------------------------------------------------|
D|-------------------------------------------------------------------|
A|--6-x-x-6-x-x-6-x-7-x-x-7-x-x-7-x-6-x-x-6-x-x-6-x-7--6-7-7h9-7-6---|
E|--5-x-x-5-x-x-5-x-5-x-x-5-x-x-5-x-5-x-x-5-x-x-5-x-5--------------7-|

verseeee and outro also
e|-----------------------------------------------------|
B|-----------------------------------------------------|
G|-----------------------------------------------------|
D|-----------------------------------------------------|
A|--6-x-x-6-x-x-6-x-7-x-x-7-x-x-7-x-6-x-x-6-x-x-6-x-7--|
E|--5-x-x-5-x-x-5-x-5-x-x-5-x-x-5-x-5-x-x-5-x-x-5-x-5--|

estribilloo / chorus

e|------------------------------------------|
B|------------------------------------------|
G|--7-7-7-7-7-7-7-7-7--3-3-3-3-3--5-5-5-5-5-|
D|--8-8-8-8-8-8-8-8-8--4-4-4-4-4--6-6-6-6-6-|
A|--8-8-8-8-8-8-8-8-8--4-4-4-4-4--6-6-6-6-6-|
E|--6-6-6-6-6-6-6-6-6--2-2-2-2-2--4-4-4-4-4-|
Tap to rate this tab
 
# A B C D E F G H I J K L M N O P Q R S T U V W X Y Z