Song name
# A B C D E F G H I J K L M N O P Q R S T U V W X Y Z

Cueshe - Ulan tab

                                      ULAN
                              As recorded by Cueshe
                   (From the 2006 Album HALF EMPTY, HALF FULL)

Words and Music by Cueshe
Arranged by Cueshe
Transcribed by arzakem aldrin (rhiomezath@yahoo.com)

           B                  F#/B
      x 2 4 4 4 x          x 2 4 3 2 x

Gtr I (E A D G B E) - 'distortion'
Gtr II (E A D G B E) - 'overdrive'
Gtr III (E A D G B E) - 'clean'
Gtr IV (E A D G B E) - 'piano roll'

  Q=86
 4/4

INTRO
  Gtr III
|----------------------|------------------2---|
|------------------2---|----------------------|
|-4-------4------------|-3-------3------------|
|-4---4--------4-------|-4---4--------4-------|
|-2--(2)-(2)--(2)-(2)--|-2--(2)-(2)--(2)-(2)--|
|----------------------|----------------------|


|----------------------|------------------2----|
|------------------2---|-----------------------|
|-4-------4------------|-3-------3-------------|
|-4---4--------4-------|-4---4--------4--------|
|-2--(2)-(2)--(2)-(2)--|-2--(2)-(2)--(2)-(2)---|
|----------------------|-----------------------|

(I)
    Gtr I
                                                                      
||--7-7-7-7-7-7-x-11-|-11-11-11-11-11-11-11-11\-|
||o------------------|--------------------------|
||-------------------|--------------------------|
||-------------------|--------------------------|
||o------------------|--------------------------|
||-------------------|--------------------------|
|
|   Gtr II
||-------------------|--------------------------|
||o------------------|--------------------------|
||-------------------|--------------------------|
||-------------------|--------------------------|
||o-9-9-9-9-9-9-x-13-|-13-13-13-13-13-13-13-----|
||--7-7-7-7-7-7-x-11-|-11-11-11-11-11-11-11-----|


                     \0.5
||------------------|----------|
||-9-----------x-/5-|-(5)------|
||------------------|----------|
||------------------|----------|
||------------------|----------|
||------------------|----------|
|
|   Gtr II
||------------------|----------|
||------------------|----------|
||------------------|----------|
||------------------|----------|
||-6-6-6-6-6-6-x--2-|-(2)------|
||-4-4-4-4-4-4-x--0-|-(0)------|








VERSE
  B                        F#/B                    
  Gtr III
|------------------------|-----------------------|
|-4-4-4-4-4--4-4-4-4-4-4-|-2--2-2-2--2-2-2-2-2-2-|
|-4-4-4-4-4--4-4-4-4-4-4-|-3--3-3-3--3-3-3-3-3-3-|
|-4-4-4-4-4--4-4-4-4-4-4-|-4--4-4-4--4-4-4-4-4-4-|
|-2-2-2-2-2--2-2-2-2-2-2-|-2--2-2-2--2-2-2-2-2-2-|
|------------------------|-----------------------|

B
|-------------------------|
|-4-4-4-4-4--4-4-4-4-4-4--|
|-4-4-4-4-4--4-4-4-4-4-4--|
|-4-4-4-4-4--4-4-4-4-4-4--|
|-2-2-2-2-2--2-2-2-2-2-2--|
|-------------------------|


  F#/B
                          Gtr II
|-----------------------|-------------------------|
|-2--2-2-2--2-2-2-2-2-2-|-------------------------|
|-3--3-3-3--3-3-3-3-3-3-|-------------------------|
|-4--4-4-4--4-4-4-4-4-4-|-------------------------|
|-2--2-2-2--2-2-2-2-2-2-|-11-11-11-11-11-11-11-11S|
|-----------------------|--9--9--9--9--9--9--9--9S|


|---------------------------|----|
|---------------------------|----|
|---------------------------|----|
|---------------------------|----|
|-14-14-14-14-14-14-14-14\--|----|
|-12-12-12-12-12-12-12-12\--|----|


|-----------------|-------------------------|
|-----------------|-------------------------|
|-----------------|-------------------------|
|-----------------|-------------------------|
|-9-9-9-9-9-9-9-9S|=13-13-13-13-13-13-13-13-|
|-7-7-7-7-7-7-7-7S|=11-11-11-11-11-11-11-11-|


|-----------------|-----------------|
|-----------------|-----------------|
|-----------------|-----------------|
|-----------------|-----------------|
|-6-6-6-6-6-6-6-6-|-5-5-5-5-5-5-5-5-|
|-4-4-4-4-4-4-4-4-|-3-3-3-3-3-3-3-3-|

After 1. Repeat from (I) then skip 1. and proceed to 2.
                   1.                   2.
|-----------------|------------------||-------------------|
|-----------------|-----------------o||-------------------|
|-----------------|------------------||-------------------|
|-----------------|------------------||-------------------|
|-9-9-9-9-9-9-9-9-|-4-4-4-4-4-4-4-4-o||-4-4-4-4-4--2-2----|
|-7-7-7-7-7-7-7-7-|-2-2-2-2-2-2-2-2--||-2-2-2-2-2--0-0----|


|-----------------|-------------------------|
|-----------------|-------------------------|
|-----------------|-------------------------|
|-----------------|-------------------------|
|-9-9-9-9-9-9-9-9S|=13-13-13-13-13-13-13-13-|
|-7-7-7-7-7-7-7-7S|=11-11-11-11-11-11-11-11-|


|-----------------|-------------------------|
|-----------------|-------------------------|
|-----------------|-------------------------|
|-----------------|-------------------------|
|-6-6-6-6-6-6-6-6-|-11-11-11-11-11-11-11-11-|
|-4-4-4-4-4-4-4-4-|--9--9--9--9--9--9--9--9-|


|-------------------------|-------------------------|
|-------------------------|-------------------------|
|-------------------------|-------------------------|
|-------------------------|-------------------------|
|-11-11-11-11-11-11-11-11-|-14-14-14-14-14-14-14-14-|
|--9--9--9--9--9--9--9--9-|-12-12-12-12-12-12-12-12-|


                            PM
|-----------------|----------------|
|-----------------|----------------|
|-----------------|----------------|
|-----------------|----------------|
|-9-9-9-9-9-9-9-9-|-4-4-4-4-x-2-2--|
|-7-7-7-7-7-7-7-7-|-2-2-2-2-x-0-0--|


|-----------------|-------------------------|
|-----------------|-------------------------|
|-----------------|-------------------------|
|-----------------|-------------------------|
|-9-9-9-9-9-9-9-9S|=13-13-13-13-13-13-13-13-|
|-7-7-7-7-7-7-7-7S|=11-11-11-11-11-11-11-11-|


|-----------------|-------------------------|
|-----------------|-------------------------|
|-----------------|-------------------------|
|-----------------|-------------------------|
|-6-6-6-6-6-6-6-6-|-11-11-11-11-11-11-11-11-|
|-4-4-4-4-4-4-4-4-|--9--9--9--9--9--9--9--9-|


|-------------------------|-------------------------|
|-------------------------|-------------------------|
|-------------------------|-------------------------|
|-------------------------|-------------------------|
|-11-11-11-11-11-11-11-11-|-14-14-14-14-14-14-14-14-|
|--9--9--9--9--9--9--9--9-|-12-12-12-12-12-12-12-12-|
|
|-------------------------|-------------------------|
|-------------------------|-------------------------|
|-------------------------|-------------------------|
|-------------------------|-------------------------|
|-------------------------|-------------------------|
|-------------------------|-------------------------|

GUITAR SOLO PART:

|----------------------------------|----------------------------|
|----------------------------------|----------------------------|
|----------------------------------|----------------------------|
|----------------------------------|----------------------------|
|--9------9--9--9--9---9--9--9-----|--13--13-13-13-13--13-13-13-|
|--7------7--7--7--7---7--7--7-----|--11--11-11-11-11--11-11-11-|
|
| Gtr I
|                         PM
|----------------------------------|----------------------------|
|-14b16==14-14-14-14r-14-12-14b16==|=(14)-14-14-14-14r-14-12----|
|----------------------------------|----------------------------|
|----------------------------------|----------------------------|
|----------------------------------|----------------------------|
|----------------------------------|----------------------------|


|--------------------------------|----------------------------------|
|--------------------------------|----------------------------------|
|--------------------------------|----------------------------------|
|--------------------------------|----------------------------------|
|--6----6--6--6----6--6-6--6-----|-11-11-11-11-11-11----11----11----|
|--4----4--4--4----4--4-4--4-----|--9--9--9--9--9--9-----9-----9----|
|
|                     PM
|---------19---------19----------|----------------------14----14-14-|
|-19b21------19b21--------14-----|-14-------------14-16----16-------|
|-------------------------16b18==|=16-------------------------------|
|--------------------------------|----------------------------------|
|--------------------------------|----------------------------------|
|--------------------------------|----------------------------------|


|-------------------------------------------------|
|-------------------------------------------------|
|-------------------------------------------------|
|-------------------------------------------------|
|-11----11----11----11---11----11----11---11------|
|--9-----9-----9-----9----9-----9-----9----9------|
|
|                         T  T
|-14-12-11----------------------------------------|
|----------14-12p11h12-0-11-12--0-11-12-0--7-12---|
|-------------------------------------------------|
|-------------------------------------------------|
|-------------------------------------------------|
|-------------------------------------------------|


|--------------------------------------|
|--------------------------------------|
|--------------------------------------|
|--------------------------------------|
|-4----4---4----4----4---4----4---4----|
|-2----2---2----2----2---2----2---2----|
|
|   T  T   T  T   T  T   T  T   T T
|--------------------------------------|
|-0-5-12-0-4-12-0-2-12-0-4-12-0-5-7----|
|--------------------------------------|
|--------------------------------------|
|--------------------------------------|
|--------------------------------------|

(II)
    Gtr IV
||-------------------------|-----------------------|
||o-4-4-4-4-4--4-4-4-4-4-4-|-2--2-2-2--2-2-2-2-2-2-|
||--4-4-4-4-4--4-4-4-4-4-4-|-3--3-3-3--3-3-3-3-3-3-|
||--4-4-4-4-4--4-4-4-4-4-4-|-4--4-4-4--4-4-4-4-4-4-|
||o-2-2-2-2-2--2-2-2-2-2-2-|-2--2-2-2--2-2-2-2-2-2-|
||-------------------------|-----------------------|
|
||-------------------------|-----------------------|
||o------------------------|-----------------------|
||-------------------------|-----------------------|
||-------------------------|-----------------------|
||o------------------------|-----------------------|
||-------------------------|-----------------------|

||------------------------|------------------------|
||-4-4-4-4-4--4-4-4-4-4-4-|-2--2-2-2--2-2-2-2-2-2-o|
||-4-4-4-4-4--4-4-4-4-4-4-|-3--3-3-3--3-3-3-3-3-3--|
||-4-4-4-4-4--4-4-4-4-4-4-|-4--4-4-4--4-4-4-4-4-4--|
||-2-2-2-2-2--2-2-2-2-2-2-|-2--2-2-2--2-2-2-2-2-2-o|
||------------------------|------------------------|
|
||------------------------| Repeat from (II)
||------------------------|
||------------------------|
||------------------------|
||------------------------|
||------------------------|



  Gtr II
|-------------------------|
|-------------------------|
|-------------------------|
|-------------------------|
|-11-11-11-11-11-11-11-11S|
|--9--9--9--9--9--9--9--9S|

|---------------------------|
|---------------------------|
|---------------------------|
|---------------------------|
|-14-14-14-14-14-14-14-14\--|
|-12-12-12-12-12-12-12-12\--|


|-----------------|-------------------------|
|-----------------|-------------------------|
|-----------------|-------------------------|
|-----------------|-------------------------|
|-9-9-9-9-9-9-9-9S|=13-13-13-13-13-13-13-13-|
|-7-7-7-7-7-7-7-7S|=11-11-11-11-11-11-11-11-|


|-----------------|-----------------|
|-----------------|-----------------|
|-----------------|-----------------|
|-----------------|-----------------|
|-6-6-6-6-6-6-6-6-|-5-5-5-5-5-5-5-5-|
|-4-4-4-4-4-4-4-4-|-3-3-3-3-3-3-3-3-|


                                                                
|-----------------|-----------------|
|-----------------|-----------------|
|-----------------|-----------------|
|-----------------|-----------------|
|-9-9-9-9-9-9-9-9-|-4-4-4-4-4-4-4-4-|
|-7-7-7-7-7-7-7-7-|-2-2-2-2-2-2-2-2-|

                           PM
-----------------|----------------|
-----------------|----------------|
-----------------|----------------|
-----------------|----------------|
-9-9-9-9-9-9-9-9-|-4-4-4-4-x-2-2--|
-7-7-7-7-7-7-7-7-|-2-2-2-2-x-0-0--|




(III)

||------------------|-------------------------|
||o-----------------|-------------------------|
||------------------|-------------------------|
||------------------|-------------------------|
||o-9-9-9-9-9-9-9-9S|=13-13-13-13-13-13-13-13-|
||--7-7-7-7-7-7-7-7S|=11-11-11-11-11-11-11-11-|


|-----------------|------------------------|
|-----------------|------------------------|
|-----------------|------------------------|
|-----------------|------------------------|
|-6-6-6-6-6-6-6-6S|=11-11-11-11-11-11-11-11|
|-4-4-4-4-4-4-4-4S|==9--9--9--9--9--9--9--9|


|-------------------------|-----------------|
|-------------------------|-----------------|
|-------------------------|-----------------|
|-------------------------|-----------------|
|-11-11-11-11-11-11-11-11-|-4-4-4-4-4-4-4-4-|
|--9--9--9--9--9--9--9--9-|-2-2-2-2-2-2-2-2-|


                            PM
|-----------------|-----------------||
|-----------------|----------------o||
|-----------------|-----------------||
|-----------------|-----------------||
|-9-9-9-9-9-9-9-9-|-4-4-4-4-x-2-2--o||
|-7-7-7-7-7-7-7-7-|-2-2-2-2-x-0-0---||

Repeat from (III)


|-----------------|-----------------|-----------------|-----------------|
|-----------------|-----------------|-----------------|-----------------|
|-----------------|-----------------|-----------------|-----------------|
|-----------------|-----------------|-----------------|-----------------|
|-9-9-9-9-4-4-4-4-|-6-6-6-6-4-4-4-4-|-7-7-7-7-2-2-2-2-|-9-9-9-9-9-9-9-9-|
|-7-7-7-7-2-2-2-2-|-4-4-4-4-2-2-2-2-|-5-5-5-5-0-0-0-0-|-7-7-7-7-7-7-7-7-|







CODA
|-----------------------------|---------------------------------|
|-----------------------------|---------------------------------|
|-----------------------------|---------------------------------|
|-----------------------------|---------------------------------|
|-9---9---9----9----4-4---4-4-|-6---6-6-----6---4-4---4-------4-|
|-7---7---7----7----2-2---2-2-|-4---4-4-----4---2-2---2-------2-|
|
| Gtr I
|-----------------------------|---------------------------------|
|-----------------------------|---------------------------------|
|-----4---4-6-[6]b8---6b8-----|-6b8---6b8r6-4---4---------------|
|-4h6---6---------------------|---------------6---6-6-6-4b4.5---|
|-----------------------------|---------------------------------|
|-----------------------------|---------------------------------|


|------------------------------------|
|------------------------------------|
|------------------------------------|
|------------------------------------|
|-7---7---7---7---2---2---2---2------|
|-5---5---5---5---0---0---0---0------|
|
|-----------4-6-7--------------------|
|-----4-5-7-------5-4-----7-5-4------|
|-4-6-----------------6-4-------6----|
|------------------------------------|
|------------------------------------|
|------------------------------------|


|-----------------------------|----------------------------------|----|
|-----------------------------|----------------------------------|----|
|-----------------------------|----------------------------------|----|
|-----------------------------|----------------------------------|----|
|--9----9---9-9-9---9---9---9-|-9---9---9---9---4---4----4---4---|----|
|--7----7---7-7-7---7---7---7-|-7---7---7---7---2---2----2---2---|----|
|
|-----------------7-6-4-------|---------------4-9-7---11-9---9-7-|----|
|-----------------------7-5-4-|---------4-5-7-------9------9-----|----|
|-[6]b8-6b8-------------------|-----4-6--------------------------|----|
|-----------6-4---------------|-4-6------------------------------|----|
|-----------------------------|----------------------------------|----|
|-----------------------------|----------------------------------|----|


|--------------------------------------|--------------------------------|
|--------------------------------------|--------------------------------|
|--------------------------------------|--------------------------------|
|--------------------------------------|--------------------------------|
|-6----6----6----6----4---4---4----4---|-7---7---7---7---2---2---2------|
|-4----4----4----4----2---2---2----2---|-5---5---5---5---0---0---0------|
|
|---11-9---12-11---11-9---9-7---11-9---|-9-7----------------------------|
|-9------9-------9------9-----9------9-|-----9-7---------7b9r7-5-4------|
|--------------------------------------|---------9-8-6-8-----------6----|
|--------------------------------------|--------------------------------|
|--------------------------------------|--------------------------------|
|--------------------------------------|--------------------------------|


|----------|-------------------|
|----------|-------------------|
|----------|-------------------|
|----------|-------------------|
|-9--------|-(9)---------------|
|-7--------|-(7)---------------|
|
|----------|-------------------|
|----------|-------------------|
|-4--------|------4------------|
|----------|--4h6---6p4--------|
|----------|------------6-2----|
|----------|-------------------|


Sorry po if medyo confusing kasi this tab is produced from my Powertab Version.
Mas maganda kung yung powertab version ang gawin nyong reference kasi mas timing at may 

basslines. As usual, ginawa ko po to para sa backing track na gawa ko for my favorite song of 

all. ;)

To all IVFMSF rockers, Anton, Alvin, Andrew, Jayzon, and Arnel^2 - para satin to.
paki-rate naman para may iskor. ;)
Tap to rate this tab
# A B C D E F G H I J K L M N O P Q R S T U V W X Y Z