Song name
# A B C D E F G H I J K L M N O P Q R S T U V W X Y Z

Cueshe - Here For You tab

Highlighted       Show chord diagrams
Intro :
D-C-B-C 2x

e2 tab ng intro 2x to ha...

makinig sa music para sa tyempo at strumming..

   D     (G-F#)  C     (G-F)         B     (G-F#)  C      E     F#
e|---------------------------------|----------------------------------------|
B|---------------------------------|----------------------------------------|
G|-7-----/12\11--5-----/12\11------|-4-----/12\11--5------9-----11----------|
D|---------------------------------|----------------------------------------|
A|-5-----/10\9---3-----/10\9-------|-2-----/10\9---3------7-----9-----------|
E|---------------------------------|----------------------------------------|



Verse : (i recommend using power chords)

D           A            B
So here we are about to take
             G              D
The final chapters of our lives
         A           B        
You go saying I am this and that
               G
That I am not cut out for that job

Refrain :
D          A               B                  C     
Cause everybody thinks I am throwing it all away
D        A               B               C----- (pause)
and everybody thinks I am gonna cry someday

Chorus :
          D
Cause im here for you,
    A
im here for you,
    B
im here for you 
    C           B - C mabilis lang an slide to 
To push you down
          D 
Cause im here for you,
    A
im here for you,
    B
im here for you
     C         B - A mabilis din
To kick you out

D                 A               B
Cause you don’t know me like they do
             G               D  -  A
So baby go walk out that door
          B        C-
Cause im here for you

Interlude:
   D     (G-F#)  C     (G-F)         B     (G-F#)  C      E     F#
e|---------------------------------|----------------------------------------|
B|---------------------------------|----------------------------------------|
G|-7-----/12\11--5-----/12\11------|-4-----/12\11--5------9-----11----------|
D|---------------------------------|----------------------------------------|
A|-5-----/10\9---3-----/10\9-------|-2-----/10\9---3------7-----9-----------|
E|---------------------------------|----------------------------------------|

Verse II
D            A                 B
Now here we are we’ve make it big
                   G                 D
We’ve reached the top we’re doing great
                A                B
We’re drinking booze we got big cash
               G              
We got girls partying all night

Refrain :
D          A               B                  C     
Cause everybody thinks I am throwing it all away
D        A               B               C - (pause)
and everybody thinks I am gonna cry someday 

(repeat chorus)

Instrumental:
    D    E    F#   G     E  F#   D    C    B    C
e|---------------------------------------------------|
B|---------------------------------------------------|
G|--7----9----11---12---\9-/11---7----5----4----5----|
D|---------------------------------------------------|
A|--5----7----9----10---\7-/9----5----3----2----3----|
E|---------------------------------------------------|
Refrain :
D          A               B                  C     
Cause everybody thinks I am throwing it all away
D        A               B               C - (pause)
and everybody thinks I am gonna cry someday 

(repeat chorus)

outro :

e|-------------------------------------------------------|
B|-------------------------------------------------------|
G|--7----9----11---12----9---11---7----5----4----5----7--|
D|-------------------------------------------------------|
A|--5----7----9----10----7---9----5----3----2----3----5--|
E|-------------------------------------------------------|


this is ACCURATE! 99.9% correct!
comment na lang jhay_aquino719@yahoo.com.ph
add na din sa friendster hehe tenchu!
Tap to rate this tab
# A B C D E F G H I J K L M N O P Q R S T U V W X Y Z