Song name
# A B C D E F G H I J K L M N O P Q R S T U V W X Y Z

Cueshe - I Wont Let You Down tab

Help us improve GuitareTab! Take a short survey!
Ok. This is the tab for i won't let you down by the subways- it may not 
be completely right but it is how i play it, i made this because
someone asked me to do it for them and because there are no other tabs for it.
The timing is relative to the numbers underneath and how far apart they are, which
keeps changing because of the 2 digit numbers which take up more room.

Please tell me any mistakes which you find - damien_093@msn.com

/=Slide
x=muted note

The order is as follows with the times that the parts appear on my version:

Riff         x8  0:00
prechorus 1  x1  0:26
chorus       x1  0:51
riff         x2  1:03
Nothing          1:10
Verse 2      x1  1:16
prechorus    x1  1:22
chorus       x2  1:48
Bridge       x1  2:12
Riff         x3  2:49
Prechorus 2  x1  2:58
Chorus       x1  3:02
Final Chorus x1  3:14
Riff         x3  3:27
Ending       x1  3:36

Riff 

e|--------------------------------------------------|
B|--------------------------------------------------|
G|--------------------------------------------------|
D|-------4------------------------------------------|
A|-----6-------6-6-------6-4---4-4------------------|
E|-4-4-------------0---0----------------------------|
   1   2   3   4   1   2   3   4   1   2   3   4


prechorus

e|----------------------------------------------------------------------------------|
B|----------------------------------------------------------------------------------|
G|-6-6-x-6-6-6-x-6/8-8-x-8-8-8-x-x-13-13-13-13-13-13-13-13-13-13-13-13-13-13-13-13--|
D|-7-7-x-7-7-7-x-7/9-9-x-9-9-9-x-x-13-13-13-13-13-13-13-13-13-13-13-13-13-13-13-13--|
A|---------------------------------11-11-11-11-11-11-11-11-11-11-11-11-11-11-11-11--|
E|----------------------------------------------------------------------------------|
   1   2   3   4   1   2   3   4   1     2     3     4     1     2     3     4

e|----------------------------------------------------------------------------------|
B|----------------------------------------------------------------------------------|
G|-6-6-x-6-6-6-x-6/8-8-x-8-8-8-x-x-13-13-13-13-13-13-13-13-13-13-13-13-13-13-13-13--|
D|-7-7-x-7-7-7-x-7/9-9-x-9-9-9-x-x-13-13-13-13-13-13-13-13-13-13-13-13-13-13-13-13--|
A|---------------------------------11-11-11-11-11-11-11-11-11-11-11-11-11-11-11-11--|
E|----------------------------------------------------------------------------------|
   1   2   3   4   1   2   3   4   1     2     3     4     1     2     3     4

e|----------------------------------------------------------------------------------|
B|-5-5-5-5-5-5-5-5-7-7-7-7-7-7-7-7--------------------------------------------------|
G|-6-6-6-6-6-6-6-6-8-8-8-8-8-8-8-8-13-13-13-13-13-13-13-13-8--8--8--8--8--8--8--8---|
D|-7-7-7-7-7-7-7-7-9-9-9-9-9-9-9-9-13-13-13-13-13-13-13-13-9--9--9--9--9--9--9--9---|
A|---------------------------------11-11-11-11-11-11-11-11-11-11-11-11-11-11-11-11--|
E|----------------------------------------------------------------------------------|
   1   2   3   4   1   2   3   4   1     2     3     4     1     2     3     4

e|----------------------------------------------------------------------------------|
B|-5-5-5-5-5-5-5-5------------------------------------------------------------------|
G|-6-6-6-6-6-6-6-6-6-6-6-6-6-6-6-6-11-11-11-11-11-11-11-11-8--8--8--8--8--8--8--8---|
D|-7-7-7-7-7-7-7-7-6-6-6-6-6-6-6-6-11-11-11-11-11-11-11-11-8--8--8--8--8--8--8--8---|
A|-----------------4-4-4-4-4-4-4-4-9--9--9--9--9--9--9--9--6--6--6--6--6--6--6--6---|
E|----------------------------------------------------------------------------------|
   1   2   3   4   1   2   3   4   1     2     3     4     1     2     3     4

Chorus

e|---------------------------------------------------------------|
B|---------------------------------------------------------------|
G|-----------------9-9-9-9-9-9-9\11-8----------------------------|
D|-6-6-6-6-6-6-----9-9-9-9-9-9--------11-11-11-11-11-11-9--11----|
A|-6-6-6-6-6-6-774-7-7-7-7-7-7--------11-11-11-11-11-11----------|
E|-4-4-4-4-4-4------------------------9--9--9--9--9--9-----------|

   1 2 3 4 1 2 3 4 1 2 3 4 1 2 3    4 1  2  3  4  1  2  3  4

e|--------------------------------------------------|
B|--------------------------------------------------|
G|-111111111111111-1313131313131313-----------------|
D|-111111111111111-1313131313131313-----------------|
A|-9-9-9-9-9-9-9-9-1010101010101010-----------------|
E|--------------------------------------------------|

   1   2   3   4   1   2   3   4

Verse 2

e|---44--44--44--44--44--44-------------------------|
B|---44--44--44--44--44--44-------------------------|
G|---44--44--44--44--44--44-------------------------|
D|---66--66--66--66--66--66-------------------------|
A|--------------------------------------------------|
E|--------------------------------------------------|

   1 2 3 4 1 2 3 4 1 2 3 4 

Bridge

e|------------------------------------------------------------------|
B|---7-----7-----7---7-----7-----7---5-----5-----5---5-----5-----5--|
G|-----4-----6---------4-----6--------------------------------------|
D|-6-----6-----4---6-----6-----4-------7-----7---------7-----7------|
A|---------------------------------7-----7-----7---7-----7-----7----|
E|------------------------------------------------------------------|

   1   2   3   4   1   2   3   4   1   2   3   4   1   2   3   4

e|------------------------------------------------------------------|
B|------------------------------------------------------------------|
G|---6-----6-----7---6-----6-----7---8-----8-----8---8-----8-----8--|
D|-----6-----6---------6-----6---------9-----9---------9-----9------|
A|-------7-----7---------7-----7---9-----9-----9---10----10----10---|
E|-9---------------9------------------------------------------------|


   1   2   3   4   1   2   3   4   1   2   3   4   1   2   3   4

e|------------------------------------------------------------------|
B|---7-----7-----7---7-----7-----7---5-----5-----5---5-----5-----5--|
G|-----4-----6---------4-----6--------------------------------------|
D|-6-----6-----4---6-----6-----4-------7-----7---------7-----7------|
A|---------------------------------7-----7-----7---7-----7-----7----|
E|------------------------------------------------------------------|

   1   2   3   4   1   2   3   4   1   2   3   4   1   2   3   4

e|------------------------------------------------------------------|
B|------------------------------------------------------------------|
G|---6-----6-----7---6-----6-----7---8-----8-----8---8-----8-----8--|
D|-----6-----6---------6-----6---------9-----9---------9-----9------|
A|-------7-----7---------7-----7---9-----9-----9---10----10----10---|
E|-9---------------9------------------------------------------------|




e|------------------------------------------------------------------|
B|---7-----7-----7---7-----7-----7---5-----5-----5---5-----5-----5--|
G|-----4-----6---------4-----6--------------------------------------|
D|-6-----6-----4---6-----6-----4-------7-----7---------7-----7------|
A|---------------------------------7-----7-----7---7-----7-----7----|
E|------------------------------------------------------------------|

   1   2   3   4   1   2   3   4   1   2   3   4   1   2   3   4

e|------------------------------------------------------------------|
B|------------------------------------------------------------------|
G|---6-----6-----7---6-----6-----7-11111111111111111212121213131313-|
D|-----6-----6---------6-----6-----11111111111111111212121213131313-|
A|-------7-----7---------7-----7---9-9-9-9-9-9-9-9-1010101011111111-|
E|-9---------------9------------------------------------------------|

   1   2   3   4   1   2   3   4   1   2   3   4   1   2   3   4


Prechorus 2

e|-------------------------------------|
B|-------------------------------------|
G|-6-6-6-6-6-6-6-6-8-8-8-8-8-8-8-8-----|
D|-6-6-6-6-6-6-6-6-8-8-8-8-8-8-8-8-----|
A|-4-4-4-4-4-4-4-4-6-6-6-6-6-6-6-6-----|
E|-------------------------------------|

   1   2   3   4   1   2   3   4 

Final chorus

e|-----------------------------------------------------------------|
B|-----------------------------------------------------------------|
G|---------------------------------9-9-9-9-9-9-9-9-9---------------|
D|-6-6-6-6-6-6-6-6-6-6-------------9-9-9-9-9-9-9-9-9---------------|
A|-6-6-6-6-6-6-6-6-6-6-------------7-7-7-7-7-7-7-7-7---------------|
E|-4-4-4-4-4-4-4-4-4-4---------------------------------------------|

   1   2   3   4   1   2   3   4   1   2   3   4   1   2   3   4

e|---------------------------------------------------------------------|
B|---------------------------------------------------------------------|
G|---------------------------------11111111111111111212121212121212----|
D|-1111111111111111111111111111111111111111111111111212121212121212----|
A|-111111111111111111111111111111119-9-9-9-9-9-9-9-1010101010101010----|
E|-9-9-9-9-9-9-9-9-9-9-9-9-9-9-9-9-------------------------------------|

   1   2   3   4   1   2   3   4   1   2   3   4   1   2   3   4


e|---------------------------------------------------------------------|
B|---------------------------------------------------------------------|
G|---------------------------------11111111111111111212121212121212----|
D|-1111111111111111111111111111111111111111111111111212121212121212----|
A|-111111111111111111111111111111119-9-9-9-9-9-9-9-1010101010101010----|
E|-9-9-9-9-9-9-9-9-9-9-9-9-9-9-9-9-------------------------------------|

   1   2   3   4   1   2   3   4   1   2   3   4   1   2   3   4

Ending

e|--------------------------------------------------|
B|-5-5-5-5-5-5-5-5-7-7-7-7-7-7-7-7------------------|
G|-6-6-6-6-6-6-6-6-8-8-8-8-8-8-8-8-11\--------------|
D|-7-7-7-7-7-7-7-7-9-9-9-9-9-9-9-9-11\--------------|
A|---------------------------------9-\--------------|
E|--------------------------------------------------|

   1   2   3   4   1   2   3   4   1   2   3   4   
Related for I Wont Let You Down tab