Song name
# A B C D E F G H I J K L M N O P Q R S T U V W X Y Z

Cueshe - Lupit tab

ARTIST:CUESHE
SONG TITLE:LUPIT
ALBUM:LIFE
TUNING:STANDARD
TAB BY:edwin_of_emerald


INTRO:G-C9-Am-C9 (x2)

E------------7-5-3---------5-3-0---|
B--0h3p0---------------------------|
G--------4---------------4---------|
D----------5-------5-5h7-----------|
A----------------------------------|
E----------------------------------|

VERSE:G-C9-Am-C9 (x4)

REFRAIN:Em-Am-Em-C-D

CHORUS:G-D-C9-D (x2) THEN Em

E----------3-----------------0-----------------3----------------0-------|
B------3-----3---3-------3-----3---3-------3-----3---3------3-----3---3-|
G----0---0-----0-------2---2-----2-------0---0-----0------2---2-----2---|
D--------------------0----------------------------------0---------------|
A--------------------------------------3--------------------------------|
E--3--------------------------------------------------------------------|


INTERLUDE:G-C9-Am-C9 (x2)

VERSE:G-C9-Am-C9 (x4)

REFRAIN:Em-Am-Em-C-D

CHORUS:G-D-C9-D (x2) THEN Em

E----------3-----------------0-----------------3----------------0-------|
B------3-----3---3-------3-----3---3-------3-----3---3------3-----3---3-|
G----0---0-----0-------2---2-----2-------0---0-----0------2---2-----2---|
D--------------------0----------------------------------0---------------|
A--------------------------------------3--------------------------------|
E--3--------------------------------------------------------------------|


BRIDGE:(Em)-Am-Em-Am-Em-Am-Em-C-D

E---------------------------------------------------------------------|
B---------------------------------------------------------------------|
G---------------------------------------------------------------------|
D--2----------------7---------------2------------------7--------------|
A--2--(X8) PALMUTE -7--(X2)--0h2----2--(X2)------2-----7--------------|(Em-Am-Em)
E--0----------------5------------3--0--------0-3---3-0-5--------------|

E--------------------------------------------------------------------|
B--------------------------------------------------------------------|
G--5---------7-------------------------------------------------------|
D--5--(X8) --7--(X12)------------------------------------------------|
A--3---------5-------------------------------------------------------|
E--------------------------------------------------------------------|

CHORUS:G-D-C9-D (x4) THEN Em

E----------3-----------------0-----------------3----------------0-------|
B------3-----3---3-------3-----3---3-------3-----3---3------3-----3---3-|
G----0---0-----0-------2---2-----2-------0---0-----0------2---2-----2---|
D--------------------0----------------------------------0---------------|
A--------------------------------------3--------------------------------|
E--3--------------------------------------------------------------------|

OUTRO:G-C9-Am-C9 (x2) Em


 LUPIT BY CUESHE

 CHORDS AND LYRICS


Intro:G-C9-Am-C9 (x2)

Verse 1:G-C9-Am-C9 (x4)


Hanggang kailan mananatili sa isipan

Ang pag-ibig kong walang hanggan

Ina-aliw sa toma ang kasiyahan

Wala namang napapala


Refrain:Em-Am-Em-C-D


At ngayon kumakapa sa dilim at hinahanap ka


Chorus:G-D-C9-D (x2) (PLUCKING) Em


Ohh...oahh...pag-ibig kay lupit mo (pag-ibig)

Ohh...oahh...bakit may ganito sa mundo


Interlude:G-C9-Am-C9 (x2)


Verse 2:G-C9-Am-C9 (x4)


Hindi alam ang daang patutunguhan

Bawat hakbang nanaisin pa

Patawad minahal kita ng lubusan

Hindi ko naman sinasadya


Refrain:Em-Am-Em-C-D


At ngayon wala ka na sa akin, sana'y madarama


Chorus:G-D-C9-D (x2) (PLUCKING) Em


Ohh...oahh...pag-ibig kay lupit mo (pag-ibig)

Ohh...oahh...bakit may ganito sa tao


Bridge:Em (PALM MUTE)



Am-Em-Am-Em-Am-Em-C-D (DISTORTED)


Sana naman hindi mo iniwang luhaan

Dahil ikaw lang ang tinitibok ng pusong ito


Chorus:G-D-C9-D (x4) (PLUCKING)


Ohh...oahh...pag-ibig kay lupit mo (pag-ibig)

Ohh...oahh...bakit may ganito (pag-ibig)

Ohh...oahh...pag-ibig kay lupit mo (pag-ibig)

Ohh...oahh...bakit may ganito sa buhay ko


Outro:G-C9-Am-C9 (x2) Em



-------------------------------------------------------------------------------------------------
ALLAN,LUIGI,BENJAMIN JR,DOODZ,"MGA KABANDA
KOPHOTZ,JM,BARON,"PATRICK,TOTO,JR,FREDRICK,DANA OF LUCIDA CONSOLE,:WOWWIE,EDUARD,REYDEL
OF SANTISIMA
,ALVIN,DUNCAN,ERVIN,JEFF,DAVE,EMMAN,IVAN,"MCOY AND NINO OF 15 MONTHS AWAY"..PAHABOL SI
LALAINE ROSE JACINTO PALA. . HAHAHAHA..KMUSTA KAYONG LAHAT
Tap to rate this tab
 
# A B C D E F G H I J K L M N O P Q R S T U V W X Y Z