Song name
# A B C D E F G H I J K L M N O P Q R S T U V W X Y Z

Cueshe - Hump Ahead tab

Song: Hump Ahead
Artist: Cueshe
Ear Tabber: Elvin Hayes Gentiles

hello.. kindly rate this tab... im xur this 98% accurate... hope you enjoy... just 
or pm me if you have some corrections... tnx... cueshe ROCKS!!

Intro:
e|----------------------------------------------------------------------|
B|----------------------------------------------------------------------|
G|-1212121212121212-1414141414141414-1616161616161616-1717171717171717--|
D|-xxxxxxxxxxxxxxxx-xxxxxxxxxxxxxxxx-xxxxxxxxxxxxxxxx-xxxxxxxxxxxxxxxx--|
A|-1010101010101010-1212121212121212-1414141414141414-1515151515151515--|
E|----------------------------------------------------------------------|

Verse:
e|----------------------------------------------------------------------|
B|----------------------------------------------------------------------|
G|-1212121212121212-1414141414141414-1616161616161616-1717171717171717--|
D|-xxxxxxxxxxxxxxxx-xxxxxxxxxxxxxxxx-xxxxxxxxxxxxxxxx-xxxxxxxxxxxxxxxx--| 2x
A|-1010101010101010-1212121212121212-1414141414141414-1515151515151515--|
E|----------------------------------------------------------------------|

Chorus:
e|------------------------------------------|
B|------------------------------------------|
G|------------77777777--99999999--55555555--|
D|--55555555--77777777--99999999--55555555--|
A|--55555555--55555555--77777777--33333333--|
E|--33333333--------------------------------|
(continued)
e|---------------------------------------|
B|---------------------------------------|
G|------------77777777--99999999--5~~~~--|
D|--55555555--77777777--99999999--5~~~~--|
A|--55555555--55555555--77777777--3~~~~--|
E|--33333333-----------------------------|

Interlude:
Guitar 1:
e|----------------------------------------------------------------------|
B|----------------------------------------------------------------------|
G|-1212121212121212-1414141414141414-1616161616161616-1717171717171717--|
D|-xxxxxxxxxxxxxxxx-xxxxxxxxxxxxxxxx-xxxxxxxxxxxxxxxx-xxxxxxxxxxxxxxxx--|
A|-1010101010101010-1212121212121212-1414141414141414-1515151515151515--|
E|----------------------------------------------------------------------|
Guitar 2:
e|-----------------------------------------|
B|--------15~------15~------15~-15p13-12~--|
G|--12-14----12-14----12-14----------------|
D|-----------------------------------------|
A|-----------------------------------------|
E|-----------------------------------------|

Verse:
e|----------------------------------------------------------------------|
B|----------------------------------------------------------------------|
G|-1212121212121212-1414141414141414-1616161616161616-1717171717171717--|
D|-xxxxxxxxxxxxxxxx-xxxxxxxxxxxxxxxx-xxxxxxxxxxxxxxxx-xxxxxxxxxxxxxxxx--|
A|-1010101010101010-1212121212121212-1414141414141414-1515151515151515--|
E|----------------------------------------------------------------------|
(continued)
e|----------------------------------------------------------|
B|----------------------------------------------------------|
G|-1212121212121212-1414141414141414-1616161616161616-17~~--|
D|-xxxxxxxxxxxxxxxx-xxxxxxxxxxxxxxxx-xxxxxxxxxxxxxxxx-xx~~--|
A|-1010101010101010-1212121212121212-1414141414141414-15~~--|
E|----------------------------------------------------------|

Chorus:
e|------------------------------------------|
B|------------------------------------------|
G|------------77777777--99999999--55555555--|
D|--55555555--77777777--99999999--55555555--|
A|--55555555--55555555--77777777--33333333--|
E|--33333333--------------------------------|
(continued)
e|---------------------------------------|
B|---------------------------------------|
G|------------77777777--99999999--5~~~~--|
D|--55555555--77777777--99999999--5~~~~--|
A|--55555555--55555555--77777777--3~~~~--|
E|--33333333-----------------------------|

Adlib:
Guitar 1:
e|--------------------------------------------------|
B|--------------------------------------------------|
G|--------------------------------------------------|
D|--55555555--77777777--99999999--1010101010101010--|
A|--55555555--77777777--99999999--1010101010101010--|
E|--33333333--55555555--77777777---8-8-8-8-8-8-8-8--|
(contineud)
e|----------------------------------------|
B|----------------------------------------|
G|----------------------------------------|
D|--55555555--77777777--99999999--10~~~~--|
A|--55555555--77777777--99999999--10~~~~--|
E|--33333333--55555555--77777777---8~~~~--|
Guitar 2:
e|-------------------------------------|
B|-------------------------------------|
G|--12~~~~--14~~~~--16-14-12-12/14~~~--|
D|-------------------------------------| 2x
A|-------------------------------------|
E|-------------------------------------|

Bridge:
e|----------------------------------------------------------------------|
B|----------------------------------------------------------------------|
G|-1212121212121212-1414141414141414-1616161616161616-1717171717171717--|
D|-xxxxxxxxxxxxxxxx-xxxxxxxxxxxxxxxx-xxxxxxxxxxxxxxxx-xxxxxxxxxxxxxxxx--|
A|-1010101010101010-1212121212121212-1414141414141414-1515151515151515--|
E|----------------------------------------------------------------------|
(continued)
e|----------------------------------------------------------|
B|----------------------------------------------------------|
G|-1212121212121212-1414141414141414-1616161616161616-17~~--|
D|-xxxxxxxxxxxxxxxx-xxxxxxxxxxxxxxxx-xxxxxxxxxxxxxxxx-xx~~--|
A|-1010101010101010-1212121212121212-1414141414141414-15~~--|
E|----------------------------------------------------------|

Chorus:
e|------------------------------------------|
B|------------------------------------------|
G|------------77777777--99999999--55555555--|
D|--55555555--77777777--99999999--55555555--| 3x
A|--55555555--55555555--77777777--33333333--|
E|--33333333--------------------------------|
(continued)
e|---------------------------------------|
B|---------------------------------------|
G|------------77777777--99999999--5~~~~--|
D|--55555555--77777777--99999999--5~~~~--|
A|--55555555--55555555--77777777--3~~~~--|
E|--33333333-----------------------------|
Tap to rate this tab
 
# A B C D E F G H I J K L M N O P Q R S T U V W X Y Z