Song name
# A B C D E F G H I J K L M N O P Q R S T U V W X Y Z

Cueshe - Walang Yamang Mas Hihigit Sayo tab

TABBED BY: CUESHE
EARTABBER: MARK LARRY S. SAQUING
E-MAIL: malasaquing_viper123@yahoo.com
kamusta kayo dyan sa cabagan
diyos ta umma nikamu ngamin!!!
intro:
e|--------------------------------|
B|--------------------------------|
G|----------------------------6/7-|
D|-----9-77~-5-6~-----9-77~-5-----|
A|-7-7------------7-7-------------|
E|--------------------------------|

repeat twice, tapos......

e|------------------------------------------------------------|
B|------------------------------------------------------------|
G|------------6/7------------6/7------------6/7---------------|
D|-----9-77-5---------9-77-5---------9-77-5---------9-77-5-6~-|
A|-7-7------------7-7------------7-7------------7-7-----------|
E|------------------------------------------------------------|

para mas maganda, strum nyo na lng tong part na toh

verse 1:
e|-------------------------------------------------------------|
B|-------------------------------------------------------------|
G|-------------------------------------------------------------|
D|-----9-77~-5-6~-----9-77~-5-6~-----9-77~-5-6~-----9-77~-5-6~-|
A|-7-7------------7-7------------7-7------------7-7------------|
E|-------------------------------------------------------------|

    ano ba ang hanap mo            pwede bang katulad ko ang ibigin mo

e|-------------------------------------------------------------|
B|-------------------------------------------------------------|
G|-------------------------------------------------------------|
D|-----9-77~-5-6~-----9-77~-5-6~-----9-77~-5-6~-----9-77~-5-6~-|
A|-7-7------------7-7------------7-7------------7-7------------|
E|-------------------------------------------------------------|

                     oooooohhhhhhhh.....

e|---------------------------------------------------------------|
B|---------------------------------------------------------------|
G|----------------------------6/7----------------------------6/7-|
D|-----9-77~-5-6~-----9-77~-5---------9-77~-5-6~-----9-77~-5-----|
A|-7-7------------7-7-------------7-7------------7-7-------------|
E|---------------------------------------------------------------|

      di mo na kailangan pa       pumunta sa dulo ng walang hanggan

e|---------------------------------------------------------------|
B|---------------------------------------------------------------|
G|----------------------------6/7----------------------------6/7-|
D|-----9-77~-5-6~-----9-77~-5---------9-77~-5-6~-----9-77~-5-----|
A|-7-7------------7-7-------------7-7------------7-7-------------|
E|---------------------------------------------------------------|

                          para sumaya.....

refrain:
F#m         A9             F#m
 ipikit mo lang ang iyong mata
          A9          E
 ang puso mo makakakita
F#m                 A9
 ng yamang di inaasahan


chorus:
  E         A9          E
   ika'y ginto sa puso ko
          A9           E
   sana ito'y malaman mo
            A9          E
   wala ng yaman sa mundo 
            A9           E
   ang mas hihigit sa'yo
              A9        E
   walang ng hahanapin pa
          A9             E
   sa'yo ako'y kontento na
          A9         E
   sana malaman mo ito
             A9           E
   walang yamang mas hihigit sa'yo

e|------------------------------------------------------------|
B|------------------------------------------------------------|
G|------------6/7------------6/7------------6/7---------------|
D|-----9-77-5---------9-77-5---------9-77-5---------9-77-5-6~-|
A|-7-7------------7-7------------7-7------------7-7-----------|
E|------------------------------------------------------------|

strum nyo ulit tong part na toh

verse 2:

e|---------------------------------------------------------------|
B|---------------------------------------------------------------|
G|----------------------------6/7----------------------------6/7-|
D|-----9-77~-5-6~-----9-77~-5---------9-77~-5-6~-----9-77~-5-----|
A|-7-7------------7-7-------------7-7------------7-7-------------|
E|---------------------------------------------------------------|

      iwanan na ang nagdaan         matutong 'wag muling masaktan

e|---------------------------------------------------------------|
B|---------------------------------------------------------------|
G|----------------------------6/7----------------------------6/7-|
D|-----9-77~-5-6~-----9-77~-5---------9-77~-5-6~-----9-77~-5-----|
A|-7-7------------7-7-------------7-7------------7-7-------------|
E|---------------------------------------------------------------|

 ang damdamin                   ako'y iyong pansinin

e|---------------------------------------------------------------|
B|---------------------------------------------------------------|
G|----------------------------6/7----------------------------6/7-|
D|-----9-77~-5-6~-----9-77~-5---------9-77~-5-6~-----9-77~-5-----|
A|-7-7------------7-7-------------7-7------------7-7-------------|
E|---------------------------------------------------------------|

      di man ako tulad nila       walang porma walang pera
e|---------------------------------------------------------------|
B|---------------------------------------------------------------|
G|----------------------------6/7----------------------------6/7-|
D|-----9-77~-5-6~-----9-77~-5---------9-77~-5-6~-----9-77~-5-----|
A|-7-7------------7-7-------------7-7------------7-7-------------|
E|---------------------------------------------------------------|

   pero mahal kita ika'y mahalaga  at iingatan pa...........

refrain:
F#m         A9             F#m
 ipikit mo lang ang iyong mata
          A9          E
 ang puso mo makakakita
F#m                 A9
 ng yamang di inaasahan

chorus:(2 frets higher)

   F#       B9          F#
   ika'y ginto sa puso ko
          B9           F#
   sana ito'y malaman mo
            B9          F#
   wala ng yaman sa mundo 
            B9           F#
   ang mas hihigit sa'yo
              B9        F#
   walang ng hahanapin pa
          B9             F#
   sa'yo ako'y kontento na
          B9         F#
   sana malaman mo ito
             B9           F#
   walang yamang mas hihigit sa'yo


(walang yamang mas hihigit sa'yo)
 mas hihigit sa'yo
(walang yamang mas hihigit sa'yo
 mas hihigit sa'yo

outro:

e|------------------------------------------------------------|
B|------------------------------------------------------------|
G|------------6/7------------6/7------------6/7---------------|
D|-----9-77-5---------9-77-5---------9-77-5---------9-77-5-6~-|
A|-7-7------------7-7------------7-7------------7-7-----------|
E|------------------------------------------------------------|

 strum nyo rin po tong part na toh

GOD BLESS MADALI LNG TOH!!!!!!!

Tap to rate this tab
 
# A B C D E F G H I J K L M N O P Q R S T U V W X Y Z