Song name
# A B C D E F G H I J K L M N O P Q R S T U V W X Y Z

Cueshe - Yaman tab

---------------------------------------------|
---------------------------------------------|
---------------6-----------------------------|
-----97-6---97-------------------------------|
---77--7--77--7------------------------------|
---------------------------------------------|

pakingan nyo nlng ung song very well para makuha nyo ung timing

------------------------------------------|
------------------------------------------|
-9----------------------------------------|
-9----7---9-------------------------------|
-7----7---9-------------------------------|
------5---7-------------------------------|

yan lng muna ung nakuha ko kc d ko maxadong napapakingan ung song figure out nyo nlng 
ung iba atleast my guide na kau wehehehhe gudluck for any comments message nyo nlng ako sa 
friendster
Tap to rate this tab
 
# A B C D E F G H I J K L M N O P Q R S T U V W X Y Z