Song name
# A B C D E F G H I J K L M N O P Q R S T U V W X Y Z

Cueshe - Walang Yaman Mas Hihigit Sa Yo tab

                        WALANG YAMAN (MAS HIHIGIT SA'YO)
                              As recorded by Cueshe
                 (From the 2007 Album ASIAN TREASURE SOUNDTRACK)
                Transcribed by Arzakem Aldrin (rhiomezath@yahoo.com)

Gtr I (E A D G B E) - 'Standard Tuning' 
Key: E
Q=120


INTRO Pattern (With Phaser effect)
  E                       E
  Gtr I
|-----------------------|-----------------------|
|-----------------------|-----------------------|
|-----------------------|---------------6b7r(6)-|
|-------9---7---6b7r(6)-|-------9---7-----------|
|----7----7---7---------|----7----7---7---------|
|-0-(0)-----------------|-0-(0)-----------------|


  E                       E
|-----------------------|-----------------------|
|-----------------------|-----------------------|
|-----------------------|---------------6b7r(6)-|
|-------9---7---6b7r(6)-|-------9---7-----------|
|----7----7---7---------|----7----7---7---------|
|-0-(0)-----------------|-0-(0)-----------------|


(With Overdrive)
  E                       E
|-----------------------|-----------------------|
|-----------------------|-----------------------|
|---------------6b7r(6)-|---------------6b7r(6)-|
|-------9---7-----------|-------9---7-----------|
|----7----7---7---------|----7----7---7---------|
|-0-(0)-----------------|-0-(0)-----------------|


  E                       E
|-----------------------|-----------------------|
|-----------------------|-----------------------|
|---------------6b7r(6)-|-----------------------|
|-------9---7-----------|-------9---7---6b7r(6)-|
|----7----7---7---------|----7----7---7---------|
|-0-(0)-----------------|-0-(0)-----------------|

Verse Pattern (with Phaser effect)
    E                   E
||--------------------|-------------------|
||o-------------------|-------------------|
||--------------------|-------------------|
||----9---7---6b7r(6)-|---9---7---6b7r(6)-|
||o-----7---7---------|-----7---7---------|
||--------------------|-------------------|


  E                   E
|-------------------|--------------------|
|-------------------|--------------------|
|-------------------|--------------------|
|---9---7---6b7r(6)-|---9---7---6b7r(6)--|
|-----7---7---------|-----7---7----------|
|-------------------|--------------------|


  E                   E
|-------------------|-------------------|
|-------------------|-------------------|
|-------------------|-------------------|
|---9---7---6b7r(6)-|---9---7---6b7r(6)-|
|-----7---7---------|-----7---7---------|
|-------------------|-------------------|


  E                   E
|-------------------|-------------------|
|-------------------|-------------------|
|-------------------|-------------------|
|---9---7---6b7r(6)-|---9---7---6b7r(6)-|
|-----7---7---------|-----7---7---------|
|-------------------|-------------------|


Refrain (with Overdrive):

  F#m          E          F#m             C#m
|-2----2-----|-0----0-----|-2----2------|-4---------|
|-2----2-----|-0----0-----|-2----2------|-5---5-----|
|-2--2-------|-1--1-------|-2--2---2----|-6---6-----|
|-4----------|-2----------|-4-----------|-6-6-------|
|-4----------|-2----------|-4-----------|-4---------|
|-2----------|-0----------|-2-----------|-4---------|

                                          
  F#m          B                           
|-2----2-----|-2---2----(2)-|-(2)---------|
|-2----2-----|-4---4----(4)-|-(4)---------|
|-2--2-------|-4---4----(4)-|-(4)---------|
|-4----------|-4---4----(4)-|-(4)---------|
|-4----------|-2---2----(2)-|-(2)---------|
|-2----------|-2---2----(2)-|-(2)---------|


CHORUS Pattern (with Overdrive):

 E           F#m
-----------|--------------|
-5---5-----|-5---4-5------|
-4---4-----|-4---4-4------|
-----------|--------------|
-----------|--------------|
-----------|--------------|
  A           B            E           F#m
|-----------|------------|-----------|------------|
|-5---5-----|-5---4--5---|-5---5-----|-5---4--5---|
|-4---4-----|-4---4--4---|-4---4-----|-4---4--4---|
|-----------|------------|-----------|------------|
|-----------|------------|-----------|------------|
|-----------|------------|-----------|------------|


  A           B            E           F#m
|-----------|------------|-----------|------------|
|-5---5-----|-5---4--5---|-5---5-----|-5---4--5---|
|-4---4-----|-4---4--4---|-4---4-----|-4---4--4---|
|-----------|------------|-----------|------------|
|-----------|------------|-----------|------------|
|-----------|------------|-----------|------------|


  A           B            E           F#m
|-----------|------------|-----------|-----------|
|-5---5-----|-5---4--5---|-4---5-----|-5---5-----|
|-4---4-----|-4---4--4---|-4---4-----|-4---4-----|
|-----------|------------|-----------|-----------|
|-----------|------------|-----------|-----------|
|-----------|------------|-----------|-----------|


  A           B            E                       F#m
|-----------|------------|-----------------------|-------------------------|
|-4---5-----|-5---5----5-|-----------------------|-------------------------|
|-4---4-----|-4---4----4-|---------------6b7r(6)-|---------------6b7r(6)---|
|-----------|------------|-------9---7-----------|-------9---7-------------|
|-----------|------------|----7----7---7---------|----7----7---7-----------|
|-----------|------------|-0-(0)-----------------|-0-(0)-------------------|


|-----------------------|-----------------------|
|-----------------------|----------------------o|
|---------------6b7r(6)-|-----------------------|
|-------9---7-----------|-------9---7---6-(6)---|
|----7----7---7---------|----7----7---7--------o|
|-0-(0)-----------------|-0-(0)-----------------|

Repeat Verse and Refrain Patterns
Repeat CHORUS moved one whole step or E = F#
(move nyo lang one step higher yung tab positions ng Chorus)

Ginawa ko po ito para sa Backtrack na gagawin ko with Fruity Loops.
Kung gus2 nyo yung Backtrack, paki-email lang po sa rhiomezath@yahoo.com
Please RATE naman para malaman ko kung ok. At kung may mali, tao lang. :P
Paki-check na lang ng PowerTab version para may BASS patterns at timing.

Hi to the estudyante blues rockers ng ivfmsf, andrew, anton, arnel i., 
arnel v.,jayzon, at alvin. 
Tsaka I dedicate this song/tab to the only person i ever lvd,
A.M. - walang yamang hihigit sa 'yo!!!
Tap to rate this tab
# A B C D E F G H I J K L M N O P Q R S T U V W X Y Z