Song name
# A B C D E F G H I J K L M N O P Q R S T U V W X Y Z

Cueshe - Pasensya Na tab

Band: Cueshe
Song: Pasensya Na

Tuning:D A D G B E


Part:I
e|-------------------------------|
B|-------------------------------|
G|-------------------------------|
D|----6666----2222----44-2-1-----|
A|-------------------------------|
D|--66------22------44-----------|


Part:II
e|----2-----2-----4----4-----0----0-----0----0---------|
B|----2------2----4-----4----0-----0----0-----0--------|
G|----4-----------4----------3----------1-----------2x-|
D|----4-----------6----------4----------2-----------2x-|
A|----2-----------6----------4----------2--------------|
D|----------------6----------4----------2--------------|
       ....        ....       ....       ....


Part:I (4x)
Intro


Part:I

Mga mata mo’y nakakaakit
Ng ‘di sinasadya
Ngiti mo’y nagbibigay sigla
Ng ‘di mo alam
Maamo mong mukha pag nakikita
Ako ay natutulala
‘Di ko alam ano’ng gagawin


Part:II

Kaya pasens’ya na
Kung may pagtingin ako sa iyo
‘Di mapigilan bulong ng damdamin
Isisigaw ko para mapansin mo
Pansinin mo naman ako


Part:I

Galaw mo’y aking sinusundan
‘Wag ka sanang mawala
Nang ikaw ay lumapit
Pinagpapawisan sa sobrang kaba
Pilit kang mahawakan
Pero ‘di ko kaya
Sa iyo’y nahihiya
‘Di ko alam ano’ng sasabihin


Part:II

Kaya pasens’ya na
Kung may pagtingin ako sa iyo
‘Di mapigilan bulong ng damdamin
Isisigaw ko para mapansin mo
Pansinin mo naman ako

e|-------------------------------------------------------|
B|-------------------------------------------------------|
G|-------------------------------------------------------|
D|--6----8----9----4----6----8----9----6----2----9-------|
A|--6----8----9----4----6----8----9----4----2----7-------|
D|--6----8----9----4----6----8----9---------2------------|
     ...  ...  ...  ...  ...  ...  ...  ...  ...  ...


Part:I (2x)


Part:II

Kaya pasens’ya na
Kung may pagtingin ako sa iyo
‘Di mapigilan bulong ng damdamin
Isisigaw ko para mapansin mo
Kaya pasens’ya na
Kung may pagtingin ako sa iyo
‘Di mapigilan bulong ng damdamin
Isisigaw ko para mapansin mo
Pansinin mo naman ako


Part:I (2x)

...Enjoy....
Tap to rate this tab
 
# A B C D E F G H I J K L M N O P Q R S T U V W X Y Z