Song name
# A B C D E F G H I J K L M N O P Q R S T U V W X Y Z

Cuff The Duke - Belgium Or Peru tab

There are two guitars, but one basically just strums C (x3555x) for each verse while the 
plays little frills and accents the C every once and a while.  I've tried to combine 
guitars into one below.

e|-x-x-x-x-|
B|-5-5-5-5-|
G|-5-5-5-5-|
D|-5-5-5-5-|
A|-3-3-3-3-|
E|-x-x-x-x-|

You left me here for some boy you hardly know
from Spain or France or was it Mexico
Well it doesn't matter now
I'll have to carry on somehow
e|-x-x-x-x-x-x-x-x-------------------x-x-|
B|-5-5-5-5-5-5-5-5-----5-----5-------5-5-|
G|-5-5-5-5-5-5-5-5---5-----5-------5-5-5-|
D|-5-5-5-5-5-5-5-5-7-----5-------5---5-5-|
A|-3-3-3-3-3-3-3-3-------------3-----3-3-|
E|-x-x-x-x-x-x-x-x-------------------x-x-|

You told me you were leaving as I had just unpacked
he impressed you so much he had everything I lacked
So I guess it's over now
I'll have to carry on somehow
e|-x-x-x-x-x-x-x-x-------------------x-x-|
B|-5-5-5-5-5-5-5-5-----5-----5-------5-5-|
G|-5-5-5-5-5-5-5-5---5-----5-------5-5-5-|
D|-5-5-5-5-5-5-5-5-7-----5-------5---5-5-|
A|-3-3-3-3-3-3-3-3-------------3-----3-3-|
E|-x-x-x-x-x-x-x-x-------------------x-x-|

You said you'd still like to be my friend
lets face it dear for now it has to end
So I guess it's over now
I'll have to carry on somehow
e|-x-x-x-x-x-x-x-x-------------0-x-x-x-x-|
B|-5-5-5-5-5-5-5-5-----5-----5-5-5-5-5-5-|
G|-5-5-5-5-5-5-5-5---5-----5---5-5-5-5-5-|
D|-5-5-5-5-5-5-5-5-7-----5-----5-5-5-5-5-|
A|-3-3-3-3-3-3-3-3-------------3-3-3-3-3-|
E|-x-x-x-x-x-x-x-x-------------x-x-x-x-x-|

But I'll wait here for the day
your love might come back my way
e|---------3-----|
B|---5---5-5-----|
G|--5---5--5-x16-|
D|-7---5---5-----|
A|---------3-----|
E|---------x-----|

e|-5-----10-----13-----5-----10-----0-|
B|-6-x16-11-x16-13-x32-6-x16-11-x16-5-|
G|-5-----10-----12-----5-----10-----5-|
D|----------------------------------5-|
A|----------------------------------3-|
E|----------------------------------x-|

e|-x-x-x-x-x-x-x-x-|
B|-5-5-5-5-5-5-5-5-|
G|-5-5-5-5-5-5-5-5-|
D|-5-5-5-5-5-5-5-5-|
A|-3-3-3-3-3-3-3-3-|
E|-x-x-x-x-x-x-x-x-|

It had been a year since I had heard from you
you sent a card from Belgium or Peru
Said you were having fun
and that boy just asked to marry you
e|-x-x-x-x-x-x-x-x-------------------------x-x-|
B|-5-5-5-5-5-5-5-5-----5-----5-------------5-5-|
G|-5-5-5-5-5-5-5-5---5-----5--5h7--------5-5-5-|
D|-5-5-5-5-5-5-5-5-7-----5-------7p5---5---5-5-|
A|-3-3-3-3-3-3-3-3-------------------3-----3-3-|
E|-x-x-x-x-x-x-x-x-------------------------x-x-|

You said yes so now I'm sitting in a row
in a little church down in Mexico
Well it doesn't matter now
you love him more than me anyhow
e|-x-x-x-x-x-x-x-x-------------------------x-x-|
B|-5-5-5-5-5-5-5-5-----5-----5-------------5-5-|
G|-5-5-5-5-5-5-5-5---5-----5--5h7--------5-5-5-|
D|-5-5-5-5-5-5-5-5-7-----5-------7p5---5---5-5-|
A|-3-3-3-3-3-3-3-3-------------------3-----3-3-|
E|-x-x-x-x-x-x-x-x-------------------------x-x-|

But I'll wait here for the day
your love might come back my way
e|---------3-----|
B|---5---5-5-----|
G|--5---5--5-x16-|
D|-7---5---5-----|
A|---------3-----|
E|---------x-----|

My love doesn't love me anymore
My love doesn't love me anymore
e|-3-----3-----|
B|-5-----5-----|
G|-5-x32-5-x32-|
D|-5-----5-----|
A|-3-----3-----|
E|-x-----x-----|

e|-5-----10-----13-----|----5-----10-----0-x-x-x-|
B|-6-x16-11-x16-13-x32-|----6-x16-11-x16-5-5-5-5-|
G|-5-----10-----12-----|-x5-5-----10-----5-5-5-5-|
D|---------------------|-----------------5-5-5-5-|
A|---------------------|-----------------3-3-3-3-|
E|---------------------|-----------------x-x-x-x-|

e|-------------0-|
B|-----5-----5-5-|
G|---5-----5---5-|
D|-7-----5-----5-|
A|-------------3-|
E|-------------x-|
Tap to rate this tab
 
# A B C D E F G H I J K L M N O P Q R S T U V W X Y Z