Song name
# A B C D E F G H I J K L M N O P Q R S T U V W X Y Z

Cuff The Duke - Ballad Of A Lonely Construction Worker tab

Title: Ballad of a Lonely Construction Worker
Artist: Cuff the Duke


INTRO (x2)
e----3-0-----------------------3-0--------------------|
B----1-1----1------------------1-1----1-------------1-|
G---------0------2-0----------------0------2-0--------|
D----------------2-2----2------------------2-2--0h2---|
A-3-----------3-------3-----3-----------3-------------|
E-----------------------------------------------------|

e----3-0--------------------5--3-1---------------0---- ||
B----1-1----1---------------6-------3-1---1/3-3--1---- ||
G---------0------2-0--------------------2-2/4-4--0----.||
D----------------2-2----2-----------------3/5-5--2----.||
A-3-----------3-------3--------------------------3---- ||
E----------------------------------------------------- ||


2ND PART
e-0-----3p0---3-----3/5/3-0-----0----------3-----|
B-1-----1-----3-----3/5/3-1-----1----------3-----|
G-0-----0-----0-----0-----2-----2----------0-----|
D-2-----2-----0-----0-----2-----2--------0-------|
A-3-----3-----2-----------0-----0-------2--------|
E-------------3-----------------------3--------3-|


e-0-----3p0---3-----3/5/3-0-----0-------------3-|
B-1-----1-----3-----3/5/3-1-----1-------------3-|
G-0-----0-----0-----0-----2-----2-------------4-|
D-2-----2-----0-----0-----2-----2-------------5-|
A-3-----3-----2-----------0-----0-----3-5---5---|
E-------------3---------------------------3-----|

e--------3--------------------------------------|
B--------3--------------------------------------|
G--------4--------------------------------------|
D--------5--------------------------------------|
A-3-5---5---------------------------------------|
E-----3-----------------------------------------|

1ST Time
e-5--3-1---------------0----|
B-6-------3-1---1/3-3--1----|
G-------------2-2/4-4--0----|
D---------------3/5-5--2----|  BACK TO INTRO
A----------------------3----|
E---------------------------|

2ND Time (after playing Intro and 2ND part again)

This is where it kicks up and where the tab stops....
throw on some over drive and hammer out the following
chord progression

Am  F  C  G

The song loops back to some other parts later on,
best to just give it a listen.

The tab isn't perfect by any means, but its a start!
Tap to rate this tab
 
# A B C D E F G H I J K L M N O P Q R S T U V W X Y Z