Song name
# A B C D E F G H I J K L M N O P Q R S T U V W X Y Z

Cult Of Luna - Leave Me Here tab

Help us improve GuitareTab! Take a short survey!
Cult Of Luna - Leave Me Here
Tuning: B E A D

Riff 1 (0:05)
D |-------------------------------------------|
A |-------------------------------------------|
E |--77-5-77-5-77-5-77-7-55-2-55-2-55-2-55-5--|
B |-------------------------------------------|

Riff 2 (0:46)
D |------------------------------------------------|
A |--------------------------------------10-10-10--|
E |--77-5-77-5-77-5-77-10-77-5-77-5-77-5-----------|
B |------------------------------------------------|

Riff 2 Varition (1:16)
D |----------------------------------------------------------------|
A |--------------------------------------10-10-10-10-10-10-999-999-|
E |--77-5-77-5-77-5-77-10-77-5-77-5-77-5---------------------------|
B |----------------------------------------------------------------|

Riff 3 (1:31) (VERY HARD TO HEAR)
D |---------12~----11~-9~-7~-77-99--|
A |--9~-10~-----9~------------------|
E |---------------------------------|
B |---------------------------------|

Rest (2:57)

Riff 4 (3:25)
D |------------------------------------|
A |------------------555-555-44----77--|
E |-----7777----7777-------------------|
B |--00------00-----------------00-----|

Riff 3 Variation (4:06)
D |--------------12~----11~-9~---9~--7~---7~-77-99----|
A |--9~-9/10-10~-----9~----------------------------7--|
E |----------------------------7--------5-------------|
B |---------------------------------------------------|x2

D |--------------12~----11~-9~---9~--7~---7~-10-10-99-12-12-10-10----|
A |--9~-9-10-10~-----9~-------------------------------------------7--|
E |----------------------------7--------5----------------------------|
B |------------------------------------------------------------------|

D |--------------12~----11~-9~---9~--7~---7~-10-10-9~-12-12-10~----|
A |--9~-9-10-10~-----9~-----------------------------------------7--|
E |----------------------------7--------5--------------------------|
B |----------------------------------------------------------------|

Riff 2 (5:23)
Related for Leave Me Here tab