Song name
# A B C D E F G H I J K L M N O P Q R S T U V W X Y Z

Cult Of Luna - Leave Me Here tab

#----------------------------------PLEASE NOTE--------------------------------#
#This file is the author's own work and represents their interpretation of the#
#song. You may only use this file for private study, scholarship, or research.#
#-----------------------------------------------------------------------------#
#-- File created with Instab - http://www.pconline.com/~smcarey/instab.html --#
#-----------------------------------------------------------------------------#

Author/Artist: Cult Of Luna
Title: Leave Me Here
Album: Salvation
Transcribed by: Jaymz88
Tunning B standard
It's probably not the right tune but it can be played like this...
I'm not sure about the first riff.
If you have any correction, please make a comment...

-||---------------------------------------------------------------------------|
-||---------------------------------------------------------------------------|
-||---------------------------------------------------------------------------|
-||--9---9--------9---9---------9---9-------9---9----------7---7-------7---7--|
-||--7---7--------7---7---------7---7-------7---7----------5---5-------5---5--|
-||----------10------------10-----------10-----------10------------7----------|


-------------------------------||---------------------------------------------|
-------------------------------||---------------------------------------------|
-------------------------------||---------------------------------------------|
------7---7-------7---7--------||---------------------------------------------|
------5---5-------5---5--------||---------------------------------------------|
---7----------7-----------7----||---------------------------------------------|


-||---------------------------------------------------------------|-----------|
-||---------------------------------------------------------------|-----------|
-||---12------11--------7----------------12------11------14-------|-----------|
-||---------------------------------------------------------------|-----------|
-||---------------------------------------------------------------|-----------|
-||---------------------------------------------------------------|-----------|
Tremolo Picking

------------------------------------------------------------------||----------|
------------------------------------------------------------------||----------|
------12------11--------7----------------14--------------16-------||----------|
------------------------------------------------------------------||----------|
------------------------------------------------------------------||----------|
------------------------------------------------------------------||----------|


-||---------------------------------------------------------------------------|
-||---------------------------------------------------------------------------|
-||---------------------------------------------------------------------------|
-||---9---9--------9---9--------9---9---------9---9-----12---9---9-------9--9-|
-||---7---7--------7---7--------7---7---------7---7-----10---7---7-------7--7-|
-||-----------10-----------10------------10--------------------------10-------|


---------------------------------|--------------------------------------------|
---------------------------------|--------------------------------------------|
-------------------17--17--17----|--------------------------------------------|
------9---9---------x---x---x----|--------------------------------------------|
------7---7--------15--15--15----|--------------------------------------------|
--10----------10-----------------|--------------------------------------------|


------------------------------------------------------------------------------|
------------------------------------------------------------------------------|
------------------------------------------------------------------------------|
------9---9--------9---9--------9---9---------9---9-----12---9---9-------9--9-|
------7---7--------7---7--------7---7---------7---7-----10---7---7-------7--7-|
--------------10-----------10------------10--------------------------10-------|


---------------------------------------------------------------------||-------|
---------------------------------------------------------------------||-------|
-------------------17--17--17--17--17--17--16--16--16--16--16--16----||-------|
------9---9---------x---x---x---x---x---x---x---x---x---x---x---x----||-------|
------7---7--------15--15--15--15--15--15--14--14--14--14--14--14----||-------|
--10----------10-----------------------------------------------------||-------|


-||---------------------------------------------------------------------------|
-||---------------------------------------------------------------------------|
-||--16--16--16--16--16--16--16--19--19--16--16--16--16--19--19--19--12--12---|
-||---------------------------------------------------------------------------|
-||---------------------------------------------------------------------------|
-||---------------------------------------------------------------------------|


------------------------------------------------------------------------------|
------------------------------------------------------------------------------|
-12--12--12--12--12--12--11--11--11--11--11--11--11--11--16--16--16--16--16---|
------------------------------------------------------------------------------|
------------------------------------------------------------------------------|
------------------------------------------------------------------------------|


------------------------------------------------------------------------------|
------------------------------------------------------------------------------|
--16--16--19--19--16--16--16--16--19--19--19--14--14--14--14--14--14--14--14--|
------------------------------------------------------------------------------|
------------------------------------------------------------------------------|
------------------------------------------------------------------------------|


-------------------------------------||---------------------------------------|
-------------------------------------||---------------------------------------|
--14--14--14--14--14--14--14--14-----||---------------------------------------|
-------------------------------------||---------------------------------------|
-------------------------------------||---------------------------------------|
-------------------------------------||---------------------------------------|


-||---------------------------------------------------------------------------|
-||---------------------------------------------------------------------------|
-||------------9---9---9---9-------------9---9---9---9---12---12---12---12----|
-||------------x---x---x---x-------------x---x---x---x----x----x----x----x----|
-||---2---2----7---7---7---7----2---2----7---7---7---7---10---10---10---10----|
-||---0---0---------------------0---0-----------------------------------------|
      -   -                     -   -

--------------------------------------||--------------------------------------|
--------------------------------------||--------------------------------------|
-12---12--11--11--11-------8---8------||--------------------------------------|
--x----x---x---x---x-------x---x------||--------------------------------------|
-10---10---9---9---9---2---6---6------||--------------------------------------|
-----------------------0--------------||--------------------------------------|
                       -

-||---------------------------------------------------------------------------|
-||---------------------------------------------------------------------------|
-||--16--16--16--16--16--16--16--19--19--16--16--16--16--19--19--19--12--12---|
-||---------------------------------------------------------------------------|
-||---------------------------------------------------------------------------|
-||---------------------------------------------------------------------------|


------------------------------------------------------------------------------|
------------------------------------------------------------------------------|
-12--12--12--12--12--12--11--11--11--11--11--11--11--11--16--16--16--16--16---|
------------------------------------------------------------------------------|
------------------------------------------------------------------------------|
------------------------------------------------------------------------------|


------------------------------------------------------------------------------|
------------------------------------------------------------------------------|
--16--16--19--19--16--16--16--16--19--19--19--14--14--14--14--14--14--14--14--|
------------------------------------------------------------------------------|
------------------------------------------------------------------------------|
------------------------------------------------------------------------------|


-------------------------------------||---------------------------------------|
-------------------------------------||---------------------------------------|
--14--14--14--14--14--14--14--14-----||---------------------------------------|
-------------------------------------||---------------------------------------|
-------------------------------------||---------------------------------------|
-------------------------------------||---------------------------------------|

-||---------------------------------------------------------------------------|
-||---------------------------------------------------------------------------|
-||---------------------------------------------------------------------------|
-||---9---9--------9---9--------9---9---------9---9-----12---9---9-------9--9-|
-||---7---7--------7---7--------7---7---------7---7-----10---7---7-------7--7-|
-||-----------10-----------10------------10--------------------------10-------|


---------------------------------|--------------------------------------------|
---------------------------------|--------------------------------------------|
-------------------17--17--17----|--------------------------------------------|
------9---9---------x---x---x----|--------------------------------------------|
------7---7--------15--15--15----|--------------------------------------------|
--10----------10-----------------|--------------------------------------------|

------------------------------------------------------------------------------|
------------------------------------------------------------------------------|
------------------------------------------------------------------------------|
------9---9--------9---9--------9---9---------9---9-----12---9---9-------9--9-|
------7---7--------7---7--------7---7---------7---7-----10---7---7-------7--7-|
--------------10-----------10------------10--------------------------10-------|


---------------------------------------------------------------------||-------|
---------------------------------------------------------------------||-------|
-------------------17--17--17--17--17--17--16--16--16--16--16--16----||-------|
------9---9---------x---x---x---x---x---x---x---x---x---x---x---x----||-------|
------7---7--------15--15--15--15--15--15--14--14--14--14--14--14----||-------|
--10----------10-----------------------------------------------------||-------|
Tap to rate this tab
# A B C D E F G H I J K L M N O P Q R S T U V W X Y Z