Song name
# A B C D E F G H I J K L M N O P Q R S T U V W X Y Z

Cult Of Luna - Passing Through Acoustic tab

(p) Pull Off
B-F-B♭-E♭-G-C. (C standard with a B on top)

These are the 3 'sections' of the song, slight variations throughout such as small bends
on the 6th fret but listen to the song to hear those, picking pattern again listen to
the song it's not too hard :) hope you enjoy, this was done by ear but I've played along 
enough to be pretty sure its right, but my first tab so gimme C&C :)


E|--0-----0--0-----0-----0--0-----|
B|-----6--------6-----6--------6--|
G|--------------------------------|
D|--------------------------------|
A|--------------------------------|
E|--------------------------------|



E|--5-----5--5--------5-----5--5--------|
B|-----6--------6--6-----6--------6--6--|
G|--------------------------------------|
D|--------------------------------------|
A|--------------------------------------|
E|--------------------------------------|



E|--0-----0--0-----0-----0----------8-----8--8--------8-----8--8-----------|
B|-----6--------6-----6-----9p6--9-----9--------9--9-----9--------9--9-----|
G|-------------------------------------------------------------------------|
D|-------------------------------------------------------------------------|
A|-------------------------------------------------------------------------|
E|-------------------------------------------------------------------------|
Tap to rate this tab
# A B C D E F G H I J K L M N O P Q R S T U V W X Y Z