Song name
# A B C D E F G H I J K L M N O P Q R S T U V W X Y Z

Cult - Horse Nation tab

Alot of the tab, such as the intro section,
is not the exact amount you play it, 
as there is no point in writing down the same bit over and over; 
it shows you the correct notes to play and a general guide.

INTRO:

e|----------------------------|  
B|------6--6--6------5--5--5--|
G|----------------------------|   Play Twice
D|----0--0--0------0--0--0----|
A|----------------------------|
E|----------------------------|

e|-----------------------------|  
B|------1--1--1------3--3--3---|
G|-----------------------------|  Play Twice
D|----0--0--0------0--0--0-----|
A|-----------------------------|
E|-----------------------------|



e|------------------------------------------------------------------------|  
B|-----------------------------------5-66-5-66-5-6---5-66-5-66-5-6--------|  
G|---5-77-5-77-5-7---5-77-5-77-5-7---5-77-5-77-5-7---5-77-5-77-5-7--------|
D|------------------------------------------------------------------------|  
A|------------------------------------------------------------------------|
E|------------------------------------------------------------------------|






e|------------------------------------------------------------------------|  
B|---5-66-5-66-5-6---5-66-5-66-5-6---5-66-5-66-5-6---5-66-5-66-5-6--------|  
G|---5-77-5-77-5-7---5-77-5-77-5-7---5-77-5-77-5-7---5-77-5-77-5-7--------|Play
D|------------------------------------------------------------------------|twice
A|------------------------------------------------------------------------|
E|------------------------------------------------------------------------|

And they come ... 




e|------------------------------------------------------------------------|  
B|-------------------------------------------------------------6-5--------|  
G|---5-77-5-77-5-7---5-77-5-77-5-7---5-77-5-77-5-7---5-77-5-77------------|Play
D|------------------------------------------------------------------------|twice
A|------------------------------------------------------------------------|
E|------------------------------------------------------------------------|

See them prancing they call me and they come
A horse nation, see them prancing, neighing they come




e|------------------------------------------------------------------------|  
B|------------------------------------------------------------------------|  
G|---5-77-5-77-5-7---5-77-5-77-5-7---5-77-5-77-5-7--/9-9-9-10-10-10-12\---|
D|------------------------------------------------------------------------|  
A|------------------------------------------------------------------------|
E|------------------------------------------------------------------------|

See them prancing they call me, neighing they come





e|------------------------|  
B|------------------------|  
G|---7-5-4---0-2-4-0-2----|  Play four times
D|---0-0-0---0-0-0-0-0----|  
A|------------------------|
E|------------------------|


CHORUS:
The whole world is coming
From the four directions
Scream and shout





e|----------------------------------------------------------------|  
B|------6--6--6------5--5--5------6--6--8--8----------------------|
G|----------------------------------------------------------------| Play four
D|----0--0--0------0--0--0------0--0--0--0--0---------------------|   times
A|----------------------------------------------------------------|
E|----------------------------------------------------------------|

See them prancing they call me and they come
A horse nation see them prancing, neighing they came
See them prancing, proudly they came





CHORUS (repeat from above):
The whole world is coming
From the four directions
And I'll scream and shout







SOLO:

e|-----------------7-7---------------------|  
B|----------------8-8-8--------------------|  
G|---0-2-4-0-2-4---------0-2-4-0-2~~~~~----|
D|---0-0-0-0-0-0---------0-0-0-0-0~~~~~----| Play twice
A|-----------------------------------------|
E|-----------------------------------------|




e|----------------------------------------------------------------|  
B|------6--6--6------5--5--5------6--6--8--8----------------------|
G|----------------------------------------------------------------|
D|----0--0--0------0--0--0------0--0--0--0--0---------------------|Play twice
A|----------------------------------------------------------------|
E|----------------------------------------------------------------|



e|------------------------------------------------------------------------|  
B|------------------------------------------------------------------------|  
G|---5-77-5-77-5-7---5-77-5-77-5-7---5-77-5-77-5-7---5-77-5-77-5-7--------|
D|------------------------------------------------------------------------|  
A|------------------------------------------------------------------------|
E|------------------------------------------------------------------------|

e|------------------------------------------------------------------------|  
B|-------------------------------------------------------------6-5--------|  
G|---5-77-5-77-5-7---5-77-5-77-5-7---5-77-5-77-5-7---5-77-5-77------------|
D|------------------------------------------------------------------------|  
A|------------------------------------------------------------------------|
E|------------------------------------------------------------------------|

e|------------------------------------------------------------------------|  
B|------------------------------------------------------------------------|  
G|---5-77-5-77-5-7---5-77-5-77-5-7---9-9-9-10-10-10-12-12-12\-------------|
D|------------------------------------------------------------------------|  
A|------------------------------------------------------------------------|
E|------------------------------------------------------------------------|




CHORUS (repeat from above):
The whole world is coming
From the four directions
Scream and shout



e|---------|  
B|---------|  
G|---0-7---|  
D|---0-0---|  
A|---------|
E|---------|
Tap to rate this tab
# A B C D E F G H I J K L M N O P Q R S T U V W X Y Z