Guitaretab - guitar tabs
Song name
# A B C D E F G H I J K L M N O P Q R S T U V W X Y Z
Home / C / Cult / Sun King tab

Cult - Sun King tab

Sun King
Cult


Intro/Chorus
e------------------------------------2-------------------------------|
b------------------------------------3-------------------------------|
g-2--2--0---------------0--2--0------2--2--0-------------0--2--0-----|
d-2--------4--------2------------4---0--------4-------2-----------4--|
a-0-------------3----------------------------------3-----------------|
E--------------------------------------------------------------------|


e--------------------------------------------------3--2--------------|
b--------------------------------------------------3-----3-----------|
g-2--2--0---------------0--2--0---------2--0-------2--------2--0-----|
d-2--------4--------2------------4---5--------4----0--------------4--|
a-0-------------3--------------------5-------------------------------|
E------------------------------------3-------------------------------|


Bridge
e---------------|
b---------------|
g---------------|
d---------------|
a--10--9--7--5--|
E---8--7--5--3--|

[ Tab from: http://www.guitaretab.com/c/cult/132298.html ]
Vers
e--------------------------|
b--------------------------|
g--------------------------|
d--2-2----5-7----2-2-------|
a--0-0----3-5----0-0----5--|
E-----------------------3--|


Pre-Chorus
e---------------------------------------|
b---------------------------4-----4--6--|
g---------------------------3--5--3--5--|
d--5-----5-----5-----5---------5--------|  2x
a--3-xx--3-xx--3-xx--3-xx---------------|
E---------------------------------------|

e-----------------------------------------------------------|
b---------------------------6-----6--8---888--888--888--88--|
g---------------------------5--7--5--7---777--777--777--77--|
d--7-----7-----7-----7---------7----------------------------| 
a--5-xx--5-xx--5-xx--5-xx-----------------------------------|
E-----------------------------------------------------------|


Solo
e-------------------------------|
b-------------------------------|
g-------------------------------|
d--77---------------------------| 4x   + A
aŚ-55-xxxx-xxxx---55------------|
E-----------------33-xxxx-xxxx--|







Related for Sun King tab