Guitaretab - guitar tabs
Song name
# A B C D E F G H I J K L M N O P Q R S T U V W X Y Z

Cult - Hollow Man tab

  THE CULT - Hollow Man



   E-------------------------------------------------|
   B-------------------------------------------------|
   G-------------------------------------------------|4X
   D---7-5--7-5--5-7---7-5---------------------------|
   A-0---------------3---------------0---------------|
   E-----------------------3--3--3-5-----------------|
[ Tab from: http://www.guitaretab.com/c/cult/158008.html ]
   E------------------------------------------------------------------|
   B------------------------------------------------------------------|
   G--------------------------7-7-5-5---------------------------------|6X
   D-7-7-7-5-5-5-7-7-7-5-5-5---------7-7-7-5-5-5--7-7-7--------------|
   A------------------------------------------------------5-5-5-7-7-5-|
   E------------------------------------------------------------------|

A
It's so nice to get 
C       G      A C G
Get away for a day
      A         
I see a hollow man gun in hand 
C       G      A C G
Gun in hands it points my way
A                       C
He follows me everywhere and everyday
G      A C G
I got to get away
A                  C       G      A C G
I won't miss him if he goes away and stays away

G   Riff   A   Riff
Just a hunter, for the devil
A   Riff  A
Hollow man, hollow man hollow man

Riff:
   E------------------------------|
   B------------------------------|
   G------------------------------|
   D------------------------------|
   A----5-5-5-3-3-3-2-2-0---------|
   E--3---------------------------|

Related for Hollow Man tab