Guitaretab - guitar tabs
Song name
# A B C D E F G H I J K L M N O P Q R S T U V W X Y Z
Home / C / Cult / Firewoman tab

Cult - Firewoman tab

The Cult - Fire Woman

Hey people- this song kicks ass.Hope you enjoy! Any comments, abuse etc 
to peatemark@hotmail.com

Chords
D		X577XX	C		X355XX
B#/C		X255XX	G		355XXX
F		133XXX


Intro
							Soft	Power!
|--------------|-------------|------------|-3-|-----|---3--------|
|-----------3--|---3---3--3--|----------3-|-3-|-----|---3--------|
|---0----0-2--|--0---0---2--|---0---0--2-|-0-|-rpt-|---0--P.S--|
|--0----0---0--|-3---2----0--|--0---0---0-|-0-|-----|---0--------|
|-----3--------|-------------|-----3------|-2-|-----|---2--------|
|-3------------|-------------|-3----------|-3-|-----|---3--------|

Rhythm 1						Fill 1(end v1)
Wound up.						Tell you the truth
|---------|---------|---------|------------|----------------------|
|---------|---------|---------|------------|----------------/1312-|
|-7-7-7-7-|-5-5-5-5-|-5-5-5-5-|5-5-5-7-7---|--------------10------|
|-7-7-7-7-|-5-5-5-5-|-5-5-5-5-|5-5-5-7-7---|-----------/12--------|
|-5-5-5-5-|-3-3-3-3-|-2-2-2-2-|3-3-3-5-5---|----------------------|
|---------|---------|---------|------------|----------------------|

Lead 1 & Chorus riff(with Rhy 1)				1st time
|----------------------|-----------------------|-----|-------|
|------6----------6----|------6-----/8-6-5-----|-----|-------|
|-/5-7----7---/5-7---7-|-/5-7---7----------5-5-|-rpt-|--5/7--|
|----------------------|-----------------------|-----|-------|
|----------------------|-----------------------|-----|-------|
|----------------------|-----------------------|-----|-------|


V1
(Rhy 1)
Wound up, can't sleep, can't do anything right, little honey,
Oh, since I set my eyes on you.
I tell you the truth. (w/Fill 1)

(Rhy 2)
D		              F			
Twistin' like a flame in a slow dance, baby,
G		F
You're driving me crazy.
Come on, little honey, come on now!  (power chords - GG GGF)

[ Tab from: http://www.guitaretab.com/c/cult/30639.html ]
(Rhy 2) 
Twisting . .
D		  F		    G			F	  GG  GGF
|------------|-------------|-------------|-------------|-----|------
|------6-5---|-----6-565-3-|-----8-6-5---|-----6-565-3-|-----|------
|----------7-|---5---------|---7-------7-|---5---------|-rpt-|------
|----7-------|-3-----------|-5-----------|-3-----------|-----|------
|-5----------|-------------|-------------|-------------|-----|------
|------------|-------------|-------------|-------------|-----|------

Chorus
(Rhy 2)
D	C	G			C		
Fire! 	Smoke, she is a rising!
D	F			G	C
Fire!   Smoke on the horizon!

(w/Fill 2)
Fire! Smoke, she is a rising!
Fire! Smoke stack lightning!

Fill 2
|------------------------|----------------------------|-----|-------|
|------65----------65----|------65---------65-5-6-8---|-----|-------|
|-/5-7----77---/5-7---77-|-/5-7---77---/5-7--7--------|-Rpt-|--5/7--|
|------------------------|----------------------------|-x 1-|-------|
|------------------------|----------------------------|-----|-------|
|------------------------|----------------------------|-----|-------|


Solo
|------------|------------------------------------------|
|------------|------------------------------------------|
|--------10--|-12--10------10---1210---------10---------|
|-/12--------|-------12-12----12-----1212--12--12-10/12-|
|------------|------------------------------------------|
|------------|------------------------------------------|

|---------------|-----------------1012-----------|
|---------------|-13-12-10--101213------13-13/15-|
|-----10----10--|---------12---------------------|
|-1012--121012-|--------------------------------|
|---------------|--------------------------------|
|---------------|--------------------------------|


V2
You shake it up, you're to blame, got me swayin' little honey.
My heart's a ball of burnin' flame.
Oh, yes it is.
Trancing like a cat on a hot tin shack,
Lord, have mercy! Come on little sister, come on and shake it!

Cho
Fire! Smoke, she is a rising!
Fire! Smoke on the horizon!
Fire! Smoke, she is a rising!
Fire! Smoke stack lightning!

Bridge
I was thinking what I've been missing.
I'll tell you truthfully, well.
She's coming close now.
I can feel her.
She's getting close to me.

Cho
Fire! Smoke, she is a rising!
Fire! Smoke on the horizon!
Fire! Smoke, she is a rising!
Fire! Smoke stack lightning
Related for Firewoman tab