Song name
# A B C D E F G H I J K L M N O P Q R S T U V W X Y Z

Cult - Fire Women tab

   Intro to end of course

   /= slide
   p= pull off
   h= hammer on
   ps= pick slide
   *1= palm mute
   (1)= last note played to continuation


------------------------------------------------3---|
-----------3------------0--3--------------3-----3---|
--------0--2-------0-------2-----------0--2-----0---| repeat except add
----0--0---0------3---2----0-------0--0---0-----0---| another g cord at the end
---0--3----------3-----3----------0--3----------2---|
--3------------------------------3--------------3---|

-----------                   ------------                 ------------------|
------/6---                   -8---6-5----                 ------------------|
--5-7----7-  x3 then after    --------5-5- repeat          -7----7----7----7-|
-----------  the 3rd play>>>> ------------ Then the        -7----7----7----7-|
-----------                   ------------verse            -5-*5-5-*5-5-*5-5-|
-----------                   ------------                 ------------------|

--------------------------------|
--------------------------------|
-5----5----5-5--5---5----5----5-|  The into pre course
-5----5----5-5--5---5----5----5-|
-3-*3-3-*3-3-3--2---2-*2-2-*2-2-|
--------------------------------|

-----------------------------------------------------------------------------|
--------3-1--------6-4h6p4-------8-6h8p6------6-4h6p4-------3-1------6-4h6p4-|
----2-----------5-------------7-------------5------------2---------5---------|
-0-0-0-------3-3-3---------5-5-5---------3-3-3--------0-0-0-----3-3-3--------|
-----------------------------------------------------------------------------|
-----------------------------------------------------------------------------|

---------------------------              --------            ---------|
-8-8---8--6----------------              ----/6--            ----6-8--|
-7-7---7--5---------------- course >>>>  -5-7--7- x3 then>>> -5-7---7-| x3
-5-5---5--3----------------              --------            ---------|
---------------------------              --------            ---------|
---------------1-3-1-3-1-3-              --------            ---------|

                ----------               ---------           --------------|
                -8-6-5----               ----6p5--           ----6p5-6h8p6-|
in between      ------5-5-      then the -5-7---7- x2        -5-7---7------|
                ----------   last two>>> ---------    2d >>  --------------|
                ----------               ---------   ending  --------------|
                ----------               ---------           --------------|

             -------------  -----------------------|
continuation -(6)-6p5-----  ----6p5-8-------6p5-6--|
 of the last ---------7-7-  -5-7---7--7--5-7---7-7-| end with second ending
section of   -------------  -----------------------|
the course   -------------  -----------------------|
             -------------  -----------------------|

    i will be back with the rest of the song don't forget to give this five stars
Tap to rate this tab
# A B C D E F G H I J K L M N O P Q R S T U V W X Y Z