Song name
# A B C D E F G H I J K L M N O P Q R S T U V W X Y Z

Cult - Edie tab

-------------------------------------------------------------------------------
			     Edie (ciao baby) - the cult
-------------------------------------------------------------------------------

Tabbed by:David Millar
Email:talculwun@hotmail.com

very nice song. very easy to play. these are the main parts 
Tuning:standard

intro & verse
    Em                   C         G
e|---------------------------------------------------------------------------|
B|----------3-p-1-0------------0-------0-------------------------------------|
G|------2-----------0--------0-------0---------------------------------------|
D|----2---2----------------2-------------------------------------------------|
A|--0--------------------3---------2-----------------------------------------|
E|-------------------------------3-------------------------------------------|


chorus:  "the dogs lay at your feet..."
    D                 C         G
e|--------2--3--2--------------------------------------------------------------|
B|------3---------3----------0---------0---------------------------------------|
G|----2-------------------0---------0------------------------------------------|
D|--0------------------2-------------------------------------------------------|
A|-------------------3------------2--------------------------------------------|
E|-----------------------------3-----------------------------------------------|


"but you're not there..."     (listen for strumming)
                          Em    C     G
e|------------------------0-----0-----3--------------------------------------|
B|------------------------0-----1-----3--------------------------------------|
G|------------------------2-----0-----0--------------------------------------|
D|------------------------2-----2-----0--------------------------------------|
A|------------------------0-----3-----2--------------------------------------|
E|------------------------------------3--------------------------------------|


===============================================================================
Tap to rate this tab
# A B C D E F G H I J K L M N O P Q R S T U V W X Y Z