Song name
# A B C D E F G H I J K L M N O P Q R S T U V W X Y Z

Cult - Wild Flower tab

  H.           E  E     E  E  E  E  E  E  E  E     E  E  E  E  E  E  E  E   
---------------------|--------------------------|--------------------------|
---------------------|--------------------------|--------------------------|
------------------2--|--L--2-----2--2-----2--2--|-----2--2-----2--2--------|
--L------------------|--------4--------4--------|--4--------4--------4--L--|
--L------------------|--------------------------|--------------------------|
--L------------------|--------------------------|--------------------------|


  E  E  E  E  E  E   E  E       E  E  E  H        E     E  Q.     Q.     E   
-----------------------------|-----------------------|-----2-------------2--|
-----------------4b--4--4br--|--L--4--4--------------|-----2-------------2--|
--2-----2-----2---------4br--|--L--4--4--------------|----------------------|
-----4-----4-----------------|-----------------------|----------------------|
-----------------------------|-----------2--------L--|------------2---------|
-----------------------------|-----------------------|----------------------|


  Q    E  E  E  E  E  E       E  E  E  E  E  E  Q     
--L----------2-------------|-------------------------|
--L-------2--2--------4br--|--L--2--4--2-------------|
----------2-----4--2--4br--|--L--2--4--2-------------|
---------------------------|--------------4--2--4----|
-------2-------------------|-------------------------|
---------------------------|-------------------------|


                                 |---3--|        |---3--|        |---3--|  
  E  E  E  E   Q.      E      E  S   S  S E   E  S   S  S E   E  S   S  S  
--------------------------|-----------------------------------------------|
--------------------------|--10--7h-10p-7----10--7h-10p-7----10--7h-10p-7-|
--2-----2--4b--Ls------9--|---------------9---------------9---------------|
-----4--------------------|-----------------------------------------------|
--------------------------|-----------------------------------------------|
--------------------------|-----------------------------------------------|


         |---3--|                        |---3--|        |---3--|           
  E   E  S   S  S E  E   Q     E      E  S   S  S E   E  S   S  S E  E  E   
----------------------------------|----------------------------------------|
-----10--7h-10p-7----7--10b----7--|--10--7h-10p-7----10--7h-10p-7----------|
--9---------------9---------------|---------------9---------------9--7--9--|
----------------------------------|----------------------------------------|
----------------------------------|----------------------------------------|
----------------------------------|----------------------------------------|


  E  E  E  E  Q    Q        E  E  E  E  E  E  E  E    
-------------------------|---------------------------|
-------------------------|-----------2--2------------|
--7----------------------|--2--2-----2--2-----2------|
-----9--7--9--L----------|--------4--------4-----4/--|
-------------------7\----|---------------------------|
-------------------------|---------------------------|


   E   E   E   E   E   E   Q        E  E  E  E  E  E  Q     
---------------------------------|-------------------------|
--------------14--14-------------|-----------2--2----------|
--14--14------14--14------14\----|--2--2-----2--2-----2----|
----------16----------16---------|--------4--------4-------|
---------------------------------|-------------------------|
---------------------------------|-------------------------|


  H.            E  E     E  E  Q    Q    E  E     E  E  Q    Q    E  E   
----------------------|------------------------|------------------------|
--5-------------L-----|--L---------------------|------------------------|
--4b------------L--4--|--L--2--4----4-------4--|--L--2--4----4-------4--|
-------------------4--|--L--2--4----4-------4--|--L--2--4----4-------4--|
-------------------2--|--L--0--2----2-------2--|--L--0--2----2-------2--|
----------------------|------------------------|------------------------|
Tap to rate this tab
# A B C D E F G H I J K L M N O P Q R S T U V W X Y Z